» » »

Muse, Hyper Chondriac Music Bass tabs (ver.1)

Artists:  A B C D E F G H I J K L M N O P Q R S T U V W X Y Z # 

Hyper Chondriac Music Bass tabs (ver.1)

Muse Tabs
 Rating:
4/5 (4 votes)
Hyper Chondriac Music lessons Tabs too difficult? Try these video lessons and learn fast
                Band: Muse
Bassist: Chris Wolstenholme
Tuning: Dropped D

Probably the easiest Muse song.

No bass till 1:53

G|----------------------------------|
D|----------------------------------|
A|----------------3-3~--------------|
D|5~-----0-0~-----------------------|

G|----------------------------------|
D|----------------------------------|
A|----------------3-3~-----3-3~-----|
D|5~-----0-0~-----------------------| x3

G|--------------------------------|
D|--------------------------------|
A|----------------3333333333333333|
D|5~55555500000000----------------|

G|--------------------------------|
D|--------------------------------|
A|----------------3333333333333333|
D|5555555500000000----------------| x5

G|----------------------------------|
D|----------------------------------|
A|----------------------------------|
D|5~--------------------------------|

/  slide up
\  slide down
h  hammer-on
p  pull-off
~  let ring
            
Submit corrections

comments powered by Disqus
↑ Back to top | Muse Bass for Hyper Chondriac Music. Lyrics for acoustic guitar and electric guitar. Tablatures and chords are parodies/interpretations of the original songs. You may use it for private study, scholarship, research or language learning purposes only