» » »

Muse, Hoodoo Tabs (ver.4)

Artists:  A B C D E F G H I J K L M N O P Q R S T U V W X Y Z # 

Hoodoo Tabs (ver.4)

Muse Tabs
 Rating:
4/5 (4 votes)
Hoodoo lessons Tabs too difficult? Try these video lessons and learn fast
                (Intro)
e]-------------------------------------------------------------------------|
B]-------------------------------------------------------------------------|
G]-------------3-----------------------------------------------------------|
D]-5h6p5-555-6---6-5-3-5h6p5-5-5-5h6-5-3-------3-5h6p5-----10////////0-----|
A]---------------------------------------6-5-6-----------------------------|
E]-------------------------------------------------------------------------|

e]-----------------------------------------------|
B]-----------------------------------------------|
G]-----------------------------------------------|
D]--5---------------------------------------6----|
A]--5---------------------------------------6----|
E]--3-x8 (listen to recording for  rhythm)--4-x--|8 (listen to recording for rhythm)

e]-----------------------------------------------|
B]-----------------------------------------------|
G]-----------------------------------------------|
D]--5---------------------------------------6----|
A]--5---------------------------------------6----|
E]--3-x8 (listen to recording for  rhythm)--4-x--|8 (listen to recording for rhythm)

e]--------------------------------------3-----------------------------------|
B]--------------------------------------4-----------------------------------|
G]--------------------------------------5-----------------------------------|
D]--5-----------------------------------5-----------------------------------|
A]--5---------------------------------3---(play chord with slow upstroke)---|
E]--3-(3 times)----3-----3-3-4-6-4-3----------------------------------------|

I hate to say it...but that's as far as i've got...but if you have any more/any 
don't hesitate to contact me.

p.s. MUSE RULE :D!!!!
            
Submit corrections

comments powered by Disqus
↑ Back to top | Muse Tabs for Hoodoo. Lyrics for acoustic guitar and electric guitar. Tablatures and chords are parodies/interpretations of the original songs. You may use it for private study, scholarship, research or language learning purposes only