» » »

Muse, Hoodoo Tabs (ver.5)

Artists:  A B C D E F G H I J K L M N O P Q R S T U V W X Y Z # 

Hoodoo Tabs (ver.5)

Muse Tabs
 Rating:
4/5 (4 votes)
Hoodoo lessons Tabs too difficult? Try these video lessons and learn fast
                Okay this is my own 'solo' i made by listening for piano,vocals, and violin.

1:55
e---------------------------------------------------------------------------------|
B---------------------------------------------------------------------------------|
G----5----3-----------3--0--------------------------------------------------------|
D-------5-----3---5--------1----3--Letring----------------------------------------|
A---------------------------------------------------------------------------------|
E---------------------------------------------------------------------------------|

Come to be            How did it come to be

e-------------------------------------------------------------------------------|
B-------------------------------------------------------------------------------|
G-5---5--5-----------------5---7---10--10---10--------8--10--12-12-12-----------|
D-------------------------------------------------------------------------------|
A-------------------------------------------------------------------------------|
E-------------------------------------------------------------------------------|

                              Watch our souls fade away

e--------------------------------------------------------------------------------|
B-----------------------15~~~~~~~~~~~~~~~~~~~~~~-------18~~~~~~~~~~~~~~~~~~------|
G---12/17--17-17-----------------------------------------------------------------|
D--------------------------------------------------------------------------------|
A--------------------------------------------------------------------------------|
E--------------------------------------------------------------------------------|

     Let our bodies crumble away
e-------------------------------------------------------------------------------|
B----13----15---16~~~~~~~~~~~~~~~~~~~~~~------15~~~~~~~~~~~~~~~~~~--------------|
G-------------------------------------------------------------------------------|
D-------------------------------------------------------------------------------|
A-------------------------------------------------------------------------------|
E-------------------------------------------------------------------------------|

        (Violin part) play  6 times

e-------------------------------------------------------------------------------|
B---15--16--15-13-15-16---------------------------------------------------------|
G-------------------------------------------------------------------------------|
D-------------------------------------------------------------------------------|
A-------------------------------------------------------------------------------|
E-------------------------------------------------------------------------------|


    I will take the blow for you

e--------------------------------------------------------------------------------|
B---18--18--16--16-15---16-15--13--letring---------------------------------------|
G--------------------------------------------------------------------------------|
D--------------------------------------------------------------------------------|
A--------------------------------------------------------------------------------|
E--------------------------------------------------------------------------------|

~~~~-pick rapidly
/-slide
            
Submit corrections

comments powered by Disqus
↑ Back to top | Muse Tabs for Hoodoo. Lyrics for acoustic guitar and electric guitar. Tablatures and chords are parodies/interpretations of the original songs. You may use it for private study, scholarship, research or language learning purposes only