» » »

Helsinki Jam Bass tabs (ver.1)

Artists:  A B C D E F G H I J K L M N O P Q R S T U V W X Y Z # 

Helsinki Jam Bass tabs (ver.1)

Muse
Rating:
0/5 (0 votes)

Hard to play? Try these video lessons and learn fast.
                -----------------------------------------------------------------------------
			    HELSINKI JAM - Muse
-----------------------------------------------------------------------------

Tuning: Standard Bass (EADG)

==========

Intro: repeat 4 times
G||----------------------|
D||-5---5---5------------|
A||----------------------| x4
E||----------------------|



Section 1: repeat 8 times
G|-12-0-0-8-0-0-12-0-0-8-0-0-11--11--|
D|-----------------------------------|
A|-----------------------------------| x8
E|-----------------------------------|



Interlude: repeat 2 times
G|----------------------|-----------------------|
D|-5---5---5------------|----5---5---5----------|
A|----------------------|-----------------------|
E|----------------------|-----------------------|


G|----------------------|-----------------------|
D|-5---5---5------------|----5---5---4----------|
A|----------------------|-----------------------| x2
E|----------------------|-----------------------|



Section 2: repeat 4 times
G|-12-0-0-15-0-0-14-0-0-17-0-0-15-0-19-0-|
D|---------------------------------------|
A|---------------------------------------|
E|---------------------------------------|


G|-19-0-0-17-0-0-15-0-0-17-0-0-15-0-11-0-|
D|---------------------------------------|
A|---------------------------------------| x4
E|---------------------------------------|



Section 3:
G|-12-0-0-7-0-0-12-0-0-7-0-0-12-0-0-7-|-0-0-12-0-0-7-0-0-12-0-0-7-0-0-12-0-|
D|------------------------------------|------------------------------------|
A|------------------------------------|------------------------------------|
E|------------------------------------|------------------------------------|


G|-0-8-0-0-12-0-0-8-0-0-12-0-0-8-0-0-|-12-0-0-8-0-0-12-0-0-8-0-0-12-0-0-9-|
D|-----------------------------------|------------------------------------|
A|-----------------------------------|------------------------------------|
E|-----------------------------------|------------------------------------|


G|-0-0-12-0-0-9-0-0-12-0-0-9-0-0-12-0-|-0-9-0-0-12-0-0-9-0-0-12-0-0-9-0-0-|
D|------------------------------------|-----------------------------------|
A|------------------------------------|-----------------------------------|
E|------------------------------------|-----------------------------------|


G|-12-0-0-10-0-0-12-0-0-10-0-0-12-0-0-11-|
D|---------------------------------------|
A|---------------------------------------|
E|---------------------------------------|

G|-0-0-12-0-0-11-0-0-12-0-0-11-0-0-12-0-|
D|--------------------------------------|
A|--------------------------------------|
E|--------------------------------------|

G|-0-7-0-0-12-0-0-7-0-0-12-0-0-7-0-0-|-12-0-0-7-0-0-12-0-0-7-0-0-12-0-0-8-|
D|-----------------------------------|------------------------------------|
A|-----------------------------------|------------------------------------|
E|-----------------------------------|------------------------------------|


G|-0-0-12-0-0-8-0-0-12-0-0-8-0-0-12-0-|-0-8-0-0-12-0-0-8-0-0-12-0-0-8-0-0-|
D|------------------------------------|-----------------------------------|
A|------------------------------------|-----------------------------------|
E|------------------------------------|-----------------------------------|


G|-12-0-0-9-0-0-12-0-0-9-0-0-12-0-0-9-|-0-0-12-0-0-9-0-0-12-0-0-9-0-0-12-0-|
D|------------------------------------|------------------------------------|
A|------------------------------------|------------------------------------|
E|------------------------------------|------------------------------------|


G|-0-10-0-0-12-0-0-10-0-0-12-0-0-10-0-0-|
D|--------------------------------------|
A|--------------------------------------|
E|--------------------------------------|

G|-12-0-0-11-0-0-12-0-0-11-0-0-12-0-0-11-|
D|---------------------------------------|
A|---------------------------------------|
E|---------------------------------------|



Section 1 bis: repeat 8 times
G|-12-0-0-8-0-0-12-0-0-8-0-0-11--11--|
D|-----------------------------------|
A|-----------------------------------| x8
E|-----------------------------------|



Outro:
G|----------------------|----------------------|
D|-5---5---5------------|-5---5---5------------|
A|----------------------|----------------------|
E|----------------------|----------------------|

G|----------------------|----------------------|
D|-5---5---5------------|-5---5---4------------|
A|----------------------|----------------------|
E|----------------------|----------------------|

 
G|----------------------|-----------------------|
D|-5---5---5------------|----5---5---5----------|
A|----------------------|-----------------------|
E|----------------------|-----------------------|


G|----------------------|-----------------------||
D|-5---5---5------------|----5---5---5----------||
A|----------------------|-----------------------||
E|----------------------|-----------------------||


==========

Enjoy!

Cheers!
ZeG
            
Hard to play? Try these video lessons and learn fast. | Correct




comments powered by Disqus
↑ Back to top | Tablatures and chords are parodies/interpretations of the original songs. You may use it for private study, scholarship, research or language learning purposes only