» » »

Fury Tabs (ver.5)

Artists:  A B C D E F G H I J K L M N O P Q R S T U V W X Y Z # 

Fury Tabs (ver.5)

Muse
Rating:
0/5 (0 votes)

Hard to play? Try these video lessons and learn fast.
                Band - Muse
Song - Fury

Intro

E-----------|
B-----10~---|
G-----------|
D-----------|
A-----------|
E-----------|

Main riff
E---------------------------------|--------------|
B--10--9-9-9----------------------|--------9-----|
G-----------10-10-10-9-9-9--------|--10-10-------|
D---------------------------------|--------------| X 2
A---------------------------------|--------------|
E---------------------------------|--------------|


E---------------------------------|
B---------------------------------|
G--9-7----------------------------|
D------10-9-10-9-7-10-9-----------|
A---------------------------------|
E---------------------------------|


Verse - No Guitar

Chorus (X 2):

E--1--------1-------1-------1---------|
B----2---2----2---2---2---2---2---2---|
G------3--------3-------3-------3-----|
D-------------------------------------|
A-------------------------------------|
E-------------------------------------|

E--1--------1-------1-------1---------|
B----1---1----1---1---1---1---1---1---|
G------2--------2-------2-------2-----|
D-------------------------------------|
A-------------------------------------|
E-------------------------------------|

E--0--------0-------0-------0---------|
B----1---1----1---1---1---1---1---1---|
G------0--------0-------0-------0-----|
D-------------------------------------|
A-------------------------------------|
E-------------------------------------|

E--0--------0-------0-------0---------|
B----0---0----0---0---0---0---0---0---|
G------1--------1-------1-------1-----|
D-------------------------------------|
A-------------------------------------|
E-------------------------------------|

Bass Interlude - No Guitar

Verse - No Guitar

Chorus

Bridge
E--------------------------------------|
B---10-10-10-10----10-10-10-10-10------|
G--------------------------------------|
D--------------------------------------|
A--------------------------------------|
E--------------------------------------|

Then
E---------------------------------|--------------|
B--10--9-9-9----------------------|--------9-----|
G-----------10-10-10-9-9-9--------|--10-10-------|
D---------------------------------|--------------| X 2
A---------------------------------|--------------|
E---------------------------------|--------------|

E------------------------------------------------|
B--10-12-12b--10-12-15--13-12-13-12-10-13-12-----|
G------------------------------------------------|
D------------------------------------------------|
A------------------------------------------------|
E------------------------------------------------|

Chorus

Bridge
            
Hard to play? Try these video lessons and learn fast. | Correct




comments powered by Disqus
↑ Back to top | Tablatures and chords are parodies/interpretations of the original songs. You may use it for private study, scholarship, research or language learning purposes only