» » »

Muse, Forced In Bass tabs (ver.2)

Artists:  A B C D E F G H I J K L M N O P Q R S T U V W X Y Z # 

Forced In Bass tabs (ver.2)

Muse Tabs
 Rating:
4/5 (4 votes)
Forced In lessons Tabs too difficult? Try these video lessons and learn fast
                Band: Muse
Bassist: Chris Wolstenholme
Tuning: Standard

G|----------|    |-----2~-----2~-| Play these high notes if You want
D|----------|    |---3------4----|
A|----------|    |---------------|
E|-5~----3~-| x4 |-1------2------| x2 

You can add dead notes if You want them so badly :)

G|------------|------------|    |-------------------|
D|------------|------------|    |-------------------|
A|------------|------------|    |-------------------|
E|-1-1--------|-2-2--------| x6 |-5~-------3~-------| x2

G|-------------------|    |------------|------------|
D|-------------------|    |------------|------------|
A|-------------------|    |------------|------------|
E|-5-5-5----3-3-3----| x4 |-1-1--------|-2-2--------| x4

G|-------------------|    |---------------------|
D|-------------------|    |---------------------|
A|-------------------|    |---------------------|
E|-5-5------4-4------| x4 |-1-1------2-2--------| x8

Hope that You'll find this tab useful. Please rate and check out other
MUSE tabs made by me.

/  slide up
\  slide down
h  hammer-on
p  pull-off
~  let ring
            
Submit corrections

comments powered by Disqus
↑ Back to top | Muse Bass for Forced In. Lyrics for acoustic guitar and electric guitar. Tablatures and chords are parodies/interpretations of the original songs. You may use it for private study, scholarship, research or language learning purposes only