» » »

Muse, Forced In Tabs (ver.2)

Artists:  A B C D E F G H I J K L M N O P Q R S T U V W X Y Z # 

Forced In Tabs (ver.2)

Muse Tabs
 Rating:
4/5 (4 votes)
Forced In lessons Tabs too difficult? Try these video lessons and learn fast
1
                Band: Muse

This is a pretty special song, but I like it!

Intro: (Matt sings the same as the guitar)
e|----------------|----------------|----------------|----------------|
B|----------------|----------------|----------------|----------------|
G|4-----------4b--|2---------------|4---------------|4---------------|
D|----------------|----------------|----------------|----------------|
A|----------------|----------------|----------------|----------------|
E|----------------|----------------|----------------|----------------|


e|----------------|----------------|
B|----------------|----------------|
G|4-----------4b--|2---------------|
D|----------------|----------------|
A|----------------|----------------|
E|----------------|----------------|

A-part:
e|----------------|----------------|
B|----------------|----------------|
G|----------------|----------------|Continue this figure through the A-part.
D|--------2~------|--------2~------|
A|----3-----------|----4-----------|
E|1---------------|2---------------|

B-part:
e|----------------|----------------|
B|----------------|----------------|
G|----------------|----------------|Continue this fugure through the B-part,
D|---4----4--4----|---4----4--4----|then jump to A-part again.
A|----7----7------|----5----5------|
E|5------5--5-----|3------3--3-----|

After you've played the A-part again jump to the C-part:

C-part:

e|----------------|----------------|----------------|----------------|
B|----------------|----------------|----------------|----------------|
G|----------------|----------------|----------------|----------------|
D|------5--4~-----|------5~--------|------5--4~-----|------5~--------|
A|---7------------|---6------------|---7------------|---6------------|
E|5---------------|4---------------|5---------------|4---------------|

e|----------------|----------------|----------------|----------------|
B|----------------|----------------|----------------|----------------|
G|----------------|----------------|----------------|----------------|
D|------5------0--|------4~--------|------5-----4~--|------7~--------|
A|---7------------|---7------------|---7-----6------|---6------------|
E|5---------------|4---------------|5---------------|4---------------|

Outro:
(Fast Picking)
e|19----20--------|21--------------|21--------------|21-----19-------|
B|----------------|----------------|----------------|----------------|
G|----------------|----------------|----------------|----------------|
D|----------------|----------------|----------------|----------------|
A|----------------|----------------|----------------|----------------|
E|----------------|----------------|----------------|----------------|

e|17--------------|
B|----------------|
G|----------------|Guitar fades...
D|----------------|
A|----------------|
E|----------------|

...sounds of cars and rain makes a lot of noise while the guitar plays
some random noise, on the low e-string.

Enjoy :D

Thomas Jul Kirkegaard-Larsen.
            
Submit corrections

comments powered by Disqus
↑ Back to top | Muse Tabs for Forced In. Lyrics for acoustic guitar and electric guitar. 1 Tablatures and chords are parodies/interpretations of the original songs. You may use it for private study, scholarship, research or language learning purposes only