>
 >
Forced In

Forced In Guitar Tabs

Muse - Forced In chords, tabs, tablatures, lyrics

Guitar lessons | Add/correct | Request | Top 50 tabs Artists:  A B C D E F G H I J K L M N O P Q R S T U V W X Y Z 0-9

Forced In Guitar Tabs – Muse

CD, Sheet music, Poster

Do you like Forced In? Share with your friends now
Bass TabsBass Tabs v2TabsTabs v2
I saw them playing this live on their absolution tour...was well good. What a band!
Standard Tuning

^ = bend     / = slide to #

It's nearly xmas so give me a good rating!


At the start before the main riff there is some odd effects, 
i think you just need to use flange and maybe some light feedback (ebow fx?)
E------------------
B------------------
G--4--------4^/2--- 
D------------------
A------------------
E------------------

Verse - use a whammy bar on the 2 'g2' notes
E------------------
B------------------
G-----2-------2----
D------------------ 
A---3-------4------
E-1-------2--------

Chorus
E---------------------------------------
B---------------------------------------
G---4-----4-----4------4-----4-----4----
D-----2-----2------------0-----0-------- 
A-0-----0-----0-------------------------
E--------------------3-----3-----3------

End verses
E--------------------
B-------0------------
G-----5---------5----
D-------------------- 
A---7---------6------ 
E-5---------4--------

E--------------------
B-------0------------
G-----5---------5----
D-------------------- 
A---7---------6------ 
E-5---------4--------

E--------------------
B---------------0----
G-----5--------------
D-------0------------ 
A---7---------6------ 
E-5---------4--------

E----------------------
B---------0------------
G-----4----------------
D-------6---------7---- 
A---7-----------6------ 
E-5-----------4--------





Comments


Popular Muse tabs & chords
Pluginbaby Bass Tabs
Uno 2 Bass Tabs
Citizen Erased Chords
Madness 3 Chords
Blackout 2 Tabs
Fury 1 Tabs
In Your World 5 Tabs
Madness 1 Tabs
Neutron Star Collision 1 Tabs
New Born 1 Tabs


Song lyrics



↑ Back to top | Tablatures and chords are parodies/interpretations of the original songs. You may use it for private study, scholarship, research or language learning purposes only
© 2014 AZChords.com Contact us | Privacy policy | DMCA | Add/correct tabs | Request tabs | Top 50 tabs