» » »

Muse, Forameus Tabs (ver.1)

Artists:  A B C D E F G H I J K L M N O P Q R S T U V W X Y Z # 

Forameus Tabs (ver.1)

Muse Tabs
 Rating:
4/5 (4 votes)
Forameus lessons Tabs too difficult? Try these video lessons and learn fast
1
                -------------------------------------------------------------------------------
-------------------------------------------------------------------------------
Appears On: Newton Abbot Demo Tape

Tuning: Standard  EADGBe

INTRO
e|-------------------------------------------------------------------|
B|-------------------------------------------------------------------|
G|-------------------------------------------------------------------| 
D|-------------------------------------------------------------------|
A|----7-6-5---7-6-5--------------------------------------------------|
E|--0-------0-------0-3-4-5-0-5-4-3----------------------------------|

e|-------------------------------------------------------------------|
B|-------------------------------------------------------------------|
G|------7~------7~------7~------7~------6b---6br-6br-6b--------------|
D|-------------------------------------------------------------------|
A|-------------------------------------------------------------------|
E|--0-------0-------0-------0-------0--------------------------------|

VERSE
e|-------------------------------------------------------------------|
B|-------------------------------------------------------------------|
G|--9-9--------9-9---------------------------------------------------| 
D|------8-9--------8-9--9-8-9----------------------------------------|
A|-------------------------------------------------------------------|
E|-------------------------------------------------------------------| X4


e|-----------------------|-------------------------------------------|
B|--9-9-9-9-7--7-7-7-----|-------------------------------------------|
G|--9-9-9-9-8--8-8-8-----|-------------------------------------------|
D|--9-9-9-9-9--9-9-9-----|-------------------------------------------|
A|--7-7-7-7-9--9-9-9-X8--|--2-1--------------------------------------|
E|-----------------------|------0------------------------------------|

PRE-CHORUS
e|-------------------------------------------------------------------|
B|-------------------------------------------------------------------|
G|-------------------------------------------------------------------|
D|--7-7-7-7-7-7-7-7-7-7-7-7-7-7-7-7-9-9-9-9-9-9-9-9-9-9-9-9-9-9-9-9--|
A|--7-7-7-7-7-7-7-7-7-7-7-7-7-7-7-7-9-9-9-9-9-9-9-9-9-9-9-9-9-9-9-9--|
E|--5-5-5-5-5-5-5-5-5-5-5-5-5-5-5-5-7-7-7-7-7-7-7-7-7-7-7-7-7-7-7-7--|

CHORUS X2
e|-------------------------------------------------------------------|
B|-------------------------------------------------------------------|
G|-------------------------------------------------------------------|
D|--2-2-2-2-6-6-6-6-7-7-7-7-7-7-7-7--2-2-2-2-6-6-6-6-7-7-7-7-7-7-7-7-|
A|--2-2-2-2-6-6-6-6-7-7-7-7-7-7-7-7--2-2-2-2-6-6-6-6-7-7-7-7-7-7-7-7-| 
E|--0-0-0-0-4-4-4-4-5-5-5-5-5-5-5-5--0-0-0-0-4-4-4-4-5-5-5-5-5-5-5-5-| 
                                                                       
e|-------------------------------------------------------------------| 
B|-------------------------------------------------------------------| 
G|-------------------------------------------------------------------|
D|--2-2-2-2-6-6-6-6-7-7-7-7-8-8-8-8-9-9-9-9-9-9-9-9-9-9-9-9-9-9-9-9--|
A|--2-2-2-2-6-6-6-6-7-7-7-7-8-8-8-8-9-9-9-9-9-9-9-9-9-9-9-9-9-9-9-9--|
E|--0-0-0-0-4-4-4-4-5-5-5-5-6-6-6-6-7-7-7-7-7-7-7-7-7-7-7-7-7-7-7-7--|

INTRO
e|-------------------------------------------------------------------|
B|-------------------------------------------------------------------|
G|-------------------------------------------------------------------| 
D|-------------------------------------------------------------------|
A|----7-6-5---7-6-5--------------------------------------------------|
E|--0-------0-------0-3-4-5-0-5-4-3----------------------------------|

e|-------------------------------------------------------------------|
B|-------------------------------------------------------------------|
G|------7~------7~------7~------7~------6b---6br-6br-6b--------------|
D|-------------------------------------------------------------------|
A|-------------------------------------------------------------------|
E|--0-------0-------0-------0-------0--------------------------------|

VERSE
e|-------------------------------------------------------------------|
B|-------------------------------------------------------------------|
G|--9-9--------9-9---------------------------------------------------| 
D|------8-9--------8-9--9-8-9----------------------------------------|
A|-------------------------------------------------------------------|
E|-------------------------------------------------------------------| X2

e|-----------------------|-------------------------------------------|
B|--9-9-9-9-7--7-7-7-----|-------------------------------------------|
G|--9-9-9-9-8--8-8-8-----|-------------------------------------------|
D|--9-9-9-9-9--9-9-9-----|-------------------------------------------|
A|--7-7-7-7-9--9-9-9--X8-|--2-1--------------------------------------|
E|-----------------------|------0------------------------------------|

PRE-CHORUS
e|-------------------------------------------------------------------|
B|-------------------------------------------------------------------|
G|-------------------------------------------------------------------|
D|--7-7-7-7-7-7-7-7-7-7-7-7-7-7-7-7-9-9-9-9-9-9-9-9-9-9-9-9-9-9-9-9--|
A|--7-7-7-7-7-7-7-7-7-7-7-7-7-7-7-7-9-9-9-9-9-9-9-9-9-9-9-9-9-9-9-9--|
E|--5-5-5-5-5-5-5-5-5-5-5-5-5-5-5-5-7-7-7-7-7-7-7-7-7-7-7-7-7-7-7-7--|

CHORUS X2
e|-------------------------------------------------------------------|
B|-------------------------------------------------------------------|
G|-------------------------------------------------------------------|
D|--2-2-2-2-6-6-6-6-7-7-7-7-7-7-7-7--2-2-2-2-6-6-6-6-7-7-7-7-7-7-7-7-|
A|--2-2-2-2-6-6-6-6-7-7-7-7-7-7-7-7--2-2-2-2-6-6-6-6-7-7-7-7-7-7-7-7-| 
E|--0-0-0-0-4-4-4-4-5-5-5-5-5-5-5-5--0-0-0-0-4-4-4-4-5-5-5-5-5-5-5-5-| 
                                                                       
e|-------------------------------------------------------------------| 
B|-------------------------------------------------------------------| 
G|-------------------------------------------------------------------|
D|--2-2-2-2-6-6-6-6-7-7-7-7-8-8-8-8-9-9-9-9-9-9-9-9-9-9-9-9-9-9-9-9--|
A|--2-2-2-2-6-6-6-6-7-7-7-7-8-8-8-8-9-9-9-9-9-9-9-9-9-9-9-9-9-9-9-9--|
E|--0-0-0-0-4-4-4-4-5-5-5-5-6-6-6-6-7-7-7-7-7-7-7-7-7-7-7-7-7-7-7-7--|

SOLO
 [Tremelo pick this section]
e|-------------------------------------------------------------------|
B|----------------------------------------------17-----17------------|
G|-[14b--14b--14b--14b--14b--14b--14--12]-------19b21--21------------|
D|-------------------------------------------------------------------|
A|-----------------------------------------------------(X13)---------|
E|-------------------------------------------------------------------|

play these final two strings together (with the 19th fret
bent to a 21 or just playing the 21st fret) 13 times.

e|-------------------------------------------|-----------------------|
B|--19b20-17-15------------------------------|-----------------------|
G|--------------16-14b15r14-12----12----14~--|--(ad lib at top end)--|
D|-----------------------------14----14------|--(   of fretboard  )--|
A|-------------------------------------------|-----------------------|
E|-------------------------------------------|-----------------------|

e|-------------------------------------|
B|-------------------------------------|
G|--9-9-9-9-6-6-6-6-5-5-5-5-5-5-5-5----|
D|--9-9-9-9-6-6-6-6-5-5-5-5-5-5-5-5----|
A|--7-7-7-7-4-4-4-4-3-3-3-3-3-3-3-3----|
E|-------------------------------------|X2

e|-------------------------------------------------------------------|
B|-------------------------------------------------------------------|
G|--2-2-2-2-6-6-6-6-7-7-7-7-8-8-8-8----------------------------------|
D|--2-2-2-2-6-6-6-6-7-7-7-7-8-8-8-8----------------------------------|
A|--0-0-0-0-4-4-4-4-5-5-5-5-3-3-3-3-2-0-2-0-2-0-2-0-2~---------------|
E|-------------------------------------------------------------------|

OUTRO  X2
e|----------------------------------|
B|----------------------------------|
G|----------------------------------|
D|--2-2-6-6-7-7-7-7-2-2-6-6-7-7-7-7-|
A|--2-2-6-6-7-7-7-7-2-2-6-6-7-7-7-7-| 
E|--0-0-4-4-5-5-5-5-0-0-4-4-5-5-5-5-| 
                                                                       
e|-----------------------------------| 
B|-----------------------------------| 
G|-----------------------------------|
D|--2-2-6-6-7-7-8-8-9-9-9-9-9-9-9-9--|
A|--2-2-6-6-7-7-8-8-9-9-9-9-9-9-9-9--|
E|--0-0-4-4-5-5-6-6-7-7-7-7-7-7-7-7--|



| /  slide up
| \  slide down
| h  hammer-on
| p  pull-off
| ~  vibrato
| +  harmonic
| x  Mute note
===============================================================================
            
Submit corrections

comments powered by Disqus
↑ Back to top | Muse Tabs for Forameus. Lyrics for acoustic guitar and electric guitar. 1 Tablatures and chords are parodies/interpretations of the original songs. You may use it for private study, scholarship, research or language learning purposes only