» » »

Muse, Follow Me Bass tabs (ver.1)

Artists:  A B C D E F G H I J K L M N O P Q R S T U V W X Y Z # 

Follow Me Bass tabs (ver.1)

Muse Tabs
 Rating:
4/5 (4 votes)
Follow Me lessons Tabs too difficult? Try these video lessons and learn fast
                Follow Me - Muse 

This song is from Muse new album "The 2nd Law". 

Bass starts at 1:11 when Matt sings for the first time "follow me".  


Verse 1 (clear)

G|-----------------------------------------------------------------------|
D|-----------------------------------------------------------------------|
A|-11(x16)--15(x16)--6(x16)---------8(x16)---------5(x20)----------------|
E|--------------------------3(x32)---------8(x16)----------3(let ring)---|

Chorus (distortion)

G|------------------------------------------------------------------------------|
D|------------------------------------------------------------------------------|
A|-----------------------------6(x4)--------------------------------8(x8)-------|
E|-4(x8)-8-8-8-8-8-8-8-8/4(x8)-------3(x4)-4(x8)-8-8-8-8-8-8-8-8/4--------6(x8)-|

Verse 2 (clear)

G|----------------------------------------------------------------|
D|----------------------------------------------------------------|
A|----------------6(x16)--------------------------6(x16)----------|
E|-4(x16)--8(x16)----------6(x32)--4(x16)--8(x16)---------6(x20)--| Let ring the last 6 

Chorus 2 (distortion) 

G|------------------------------------------------------------------------------------|
D|------------------------------------------------------------------------------------|
A|-----------------------------6(x4)-------------------------------8(x8)-----6(let ring)
E|-4(x8)-8-8-8-8-8-8-8-8/4(x8)-------3(x4)-4(x8)-8-8-8-8-8-8-8-8/4------6(x8)---------|

End (distortion)

A|----6(let it ring)----|| Play it every time Matt screams

This is my first tab and I think it's 90% correct. 


Enjoy your learning, cheers! :D
            
Submit corrections

comments powered by Disqus
↑ Back to top | Muse Bass for Follow Me. Lyrics for acoustic guitar and electric guitar. Tablatures and chords are parodies/interpretations of the original songs. You may use it for private study, scholarship, research or language learning purposes only