» » »

Muse, Follow Me Tabs (ver.1)

Artists:  A B C D E F G H I J K L M N O P Q R S T U V W X Y Z # 

Follow Me Tabs (ver.1)

Muse Tabs
 Rating:
4/5 (4 votes)
Follow Me lessons Tabs too difficult? Try these video lessons and learn fast
1
                -------------------------------------------------------------------------------
-------------------------------------------------------------------------------
So the guitar is barely audible in the album version of the song, but it's there, 
heard especially when Matt plays it live.

Tuning: Drop D


First Chorus
e|-----------------------------------------------------------------------|
B|-----------------------------------------------------------------------|
G|-----------------------------------------------------------------------|
D|-66666666-1010101010101010/66666666-1111-5555--------------------------|
A|-66666666-1010101010101010/66666666-1111-5555--------------------------|
E|-66666666-1010101010101010/66666666-1111-5555--------------------------|

e|-----------------------------------------------------------------------|
B|-----------------------------------------------------------------------|
G|-----------------------------------------------------------------------|
D|-66666666-1010101010101010/33333333-88888888---------------------------|
A|-66666666-1010101010101010/33333333-88888888---------------------------|
E|-66666666-1010101010101010/33333333-88888888---------------------------|


Second Verse
e|-----------------------------------------------------------------------|
B|-----------------------------------------------------------------------|
G|---------------------------1212121212121212-10101010-8888--------------|
D|-----------------------------------------------------------------------|
A|---------------------------1010101010101010--8-8-8-8-6666--------------|
E|-----------------------------------------------------------------------|

e|-----------------------------------------------------------------------|
B|-----------------------------------------------------------------------|
G|-8888888888888888-7777777777777777-------------------------------------|
D|-----------------------------------------------------------------------|
A|-6666666666666666-5555555555555555-------------------------------------|
E|-----------------------------------------------------------------------|

e|-----------------------------------------------------------------------|
B|-----------------------------------------------------------------------|
G|-8-888-888-888-888-888-888-888-8812-121212-121212-121212-121212-121212-|
D|-----------------------------------------------------------------------|
A|-6-666-666-666-666-666-666-666-6610-101010-101010-101010-101010-101010-|
E|-----------------------------------------------------------------------|

e|-----------------------------------------------------------------------|
B|-----------------------------------------------------------------------|
G|-121212-121212-1212-15-151515-151515-151515-151513-131313-131312-121212|
D|-----------------------------------------------------------------------|
A|-101010-101010-1010-13-131313-131313-131313-131311-111111-111110-101010|
E|-----------------------------------------------------------------------|

e|-----------------------------------------------------------------------|
B|-----------------------------------------------------------------------|
G|-1212121212121212121212121212-17171717-191919191919191919191919191919--|
D|-----------------------------------------------------------------------|
A|-1010101010101010101010101010-15151515-171717171717171717171717171717--|
E|-----------------------------------------------------------------------|


Second Chorus
e|-----------------------------------------------------------------------|
B|-----------------------------------------------------------------------|
G|-101010-88888888888888888888888888888-101010-8888888888888-101010------|
D|-----------------------------------------------------------------------|
A|--8-8-8-66666666666666666666666666666--8-8-8-6666666666666--8-8-8------|
E|-----------------------------------------------------------------------|

e|-----------------------------------------------------------------------|
B|-----------------------------------------------------------------------|
G|-12121212121212121212121212-101010-88888888888888888888888888888-------|
D|-----------------------------------------------------------------------|
A|-10101010101010101010101010--8-8-8-66666666666666666666666666666-------|
E|-----------------------------------------------------------------------|

e|-----------------------------------------------------------------------|
B|-----------------------------------------------------------------------|
G|-10101010101010101010101010101010-15151515151515151515151515151515-----|
D|-----------------------------------------------------------------------|
A|--8-8-8-8-8-8-8-8-8-8-8-8-8-8-8-8-13131313131313131313131313131313-----|
E|-----------------------------------------------------------------------|

Outro X4
e|-----------------------------------------------------------------------|
B|-11~-------------------------------11~---------------------------------|
G|-13~-------------------------------12~---------------------------------|
D|-13~-------------------------------13~---------------------------------|
A|-11~-------------------------------10~---------------------------------|
E|-----------------------------------------------------------------------|
            
Submit corrections

comments powered by Disqus
↑ Back to top | Muse Tabs for Follow Me. Lyrics for acoustic guitar and electric guitar. 1 Tablatures and chords are parodies/interpretations of the original songs. You may use it for private study, scholarship, research or language learning purposes only