» » »

Muse, Feeling Good Bass tabs (ver.7)

Artists:  A B C D E F G H I J K L M N O P Q R S T U V W X Y Z # 

Feeling Good Bass tabs (ver.7)

Muse Tabs
Rating:
0/5 (0 votes)
Feeling Good lessons Tabs too difficult? Try these video lessons and learn fast
                Feeling Good - Muse
Enjoy!


(00:40)
G|--------------------------------|
D|--5---5-3---3-1---1-0--3-0-3-5--|
A|--------------------------------| x2
E|--------------------------------|

(00:53)
G|--------------------------------|
D|--5---5-3---3-1---1-0--3-0------|
A|--------------------------------|
E|--------------------------------|

(00:59)
G|--------------------------------|
D|--5-3---3-2---2-1---1-0---------|
A|--------------------------------|
E|--------------------------------|

G|--------------------------------|
D|--0-------------------------0---|
A|----3---3-1---1-0---0-333335----|
E|--------------------------------|

(1:16)
G|--------------------------------|
D|--------------------------------|
A|--------------------------------|
E|--3-----------------------------|

(1:22) (Quietly)
G|--------------------------------|
D|--5---5-3---3-1---1-0-/-4--7-5--|
A|--------------------------------|
E|--------------------------------|

G|--------------------------------|
D|--5-3---3-1---1-0-/-4--7-8------|
A|--------------------------------|
E|--------------------------------|

G|--------------------------------|
D|--8-----------------------------|
A|----10---10-6---6-3---3-1-------|
E|--------------------------------|

G|----------------------------------|
D|----------------------------------|
A|--1-------------------------------|
E|----3--10-5-6---6-5---------------|

(1:49)
G|--------------------------------|
D|--5---5-3---3-1---1-0--3-0-3-5--|
A|--------------------------------| x2
E|--------------------------------|

(2:02)
G|--------------------------------|
D|--5---5-3---3-1---1-0--3-0------|
A|--------------------------------|
E|--------------------------------|

(2:09)
G|--------------------------------|
D|--5-3---3-2---2-1---1-0---------|
A|--------------------------------|
E|--------------------------------|

G|-----------------------------------|
D|--0--------------------------------|
A|----3---3-1---1-0---0-3------------|
E|-----------------------------------|

(2:24) (The part Matt almost screams)
G|--------------------------------|
D|--------------------------------|
A|--33--1-0--------------------0--|
E|--------------------------------|

G|--------------------------------|
D|--------------------------------|
A|--------------------------------|
E|--3---------------------3-2-----|

G|----------------------------------|
D|----------------------------------|
A|------555555555555555555--8-------|
            

comments powered by Disqus
↑ Back to top | Muse Bass for Feeling Good. Lyrics for acoustic guitar and electric guitar. Tablatures and chords are parodies/interpretations of the original songs. You may use it for private study, scholarship, research or language learning purposes only