» » »

Muse, Feeling Good Bass tabs (ver.4)

Artists:  A B C D E F G H I J K L M N O P Q R S T U V W X Y Z # 

Feeling Good Bass tabs (ver.4)

Muse Tabs
 Rating:
4/5 (4 votes)
Feeling Good lessons Tabs too difficult? Try these video lessons and learn fast
                Tunging:   Standard - EADg


No one seems to have tabbed the whole song and people are playing it in the wrong octave 


Intro:   Just piano, drums and bass come in after first verse.


Part 1 - Distorted:


g||----------------------------------------------|------------------------------------------------||
D||5--~--~--5--3--~--~--3--1--~--~--1--0--~-3-0-3|--5--~--~--5--3--~--~--3--1--~--~--1--0--~-3-0-3||
A||----------------------------------------------|------------------------------------------------||
E||----------------------------------------------|------------------------------------------------||


g||----------------------------------------------|------------------------------------------------||
D||5--~--~--5--3--~--~--3--1--~--~--1--0--~--~---|--5--~--~--5--3--~--~--3--2--~--~--2--1--~--~--1||
A||----------------------------------------------|------------------------------------------------||
E||----------------------------------------------|------------------------------------------------||


g||----------------------------------------------|------------------------------------------------||
D||0--~--~--0------------------------------------|------------------------------------------------||
A||------------3--~--~--3--1--~--~--1--0--~--~--0|--3--3--3--3--3--4--5---------------------------||
E||----------------------------------------------|------------------------------------------------||


Part 2 - Clean:


g||----------------------------------------------|-----------------------------------------------2||
D||----------------------------------------------|--5--~--~--5--3--~--~--3--1--~--~--1--0--~-/3---||
A||----------------------------------------------|------------------------------------------------||
E||3--~--~--~--~--~--~--~--~--~--~--~--~--~--~---|------------------------------------------------||


g||---------------------------------------------2|--3--~--~--3--0--~--~--0------------------------||
D||5--~--~--5--3--~--~--3--1--~--~--1--0--~-/3---|--------------------------1--~--~--1------------||
A||----------------------------------------------|--------------------------------------3--~--~--3||
E||----------------------------------------------|------------------------------------------------||


g||--3--~--~---------------------------------------||
D||-----------5--~---5/8--0--1--~--~--1--0--~--~---||
A||------------------------------------------------||
E||------------------------------------------------||


Part 3 - Distorted:


g||----------------------------------------------|------------------------------------------------||
D||5--~--~--5--3--~--~--3--1--~--~--1--0--~-3-0-3|--5--~--~--5--3--~--~--3--1--~--~--1--0--~-3-0-3||
A||----------------------------------------------|------------------------------------------------||
E||----------------------------------------------|------------------------------------------------||


g||----------------------------------------------|------------------------------------------------||
D||5--~--~--5--3--~--~--3--1--~--~--1--0--~-3-0-3|--5--~--~--5--3--~--~--3--2--~--~--2--1--~--~--1||
A||----------------------------------------------|------------------------------------------------||
E||----------------------------------------------|------------------------------------------------||


g||----------------------------------------------|------------------------------------------------||
D||0--~--~--0------------------------------------|------------------------------------------------||
A||------------3--~--~--3--1--~--~--1--0--~--~---|--3--~--~-----3--2--1--0--~--~------------------||
E||----------------------------------------------|------------------------------------------------||


g||----------------------------------------------|------------------------------------------------||
D||----------------------------------------------|------------------------------------------------||
A||8--~--~--~--~--------8--6--~--~--~--~--------6|--5--5--5--5--5--5--5--5--5--5--5--5--5--5--5--5||
E||----------------------------------------------|------------------------------------------------||


g||------------------------------------------------||
D||------------------------------------------------||
A||--5--5--5\--------------------------------------||
E||------------------------------------------------||


Outro - Clean:


g||----------------------------------------------|------------------------------------------------||
D||5--~--~--5--3--~--~--3--1--~--~--1--0--~-3-0-3|--5--~--~--5--3--~--~--3--1--~--~--1--0--~-3-0-3||
A||----------------------------------------------|------------------------------------------------||
E||----------------------------------------------|------------------------------------------------||


g||----------------------------------------------|------------------------------------------------||
D||5--~--~--5--3--~--~--3--2--~--~--2--1--~--~--1|--0--~--~--0------------------------------------||
A||----------------------------------------------|--------------3--~--~--3--1--~--~--1--0--~--~--0||
E||----------------------------------------------|------------------------------------------------||


g||------------------------------------------------||
D||------------------------------------------------||
A||--3--3--3--3--3--4--5---------------------------||
E||--------------------------------------------3---||


Enjoy.
            
Submit corrections

comments powered by Disqus
↑ Back to top | Muse Bass for Feeling Good. Lyrics for acoustic guitar and electric guitar. Tablatures and chords are parodies/interpretations of the original songs. You may use it for private study, scholarship, research or language learning purposes only