» » »

Falling Away With You Tabs (ver.2)

Artists:  A B C D E F G H I J K L M N O P Q R S T U V W X Y Z # 

Falling Away With You Tabs (ver.2)

Muse
Rating:
0/5 (0 votes)

Hard to play? Try these video lessons and learn fast.
                Tuning: E-a-d-g-b-e (Standard)



Intro - Clean:

e-|--------------------------
b-|--13----13----13----13----
g-|----10----10----10----10--
d-|--------------------------
a-|--------------------------
E-|--------------------------



Verse - Clean:
e-|-------------------------------------------------------
b-|-------------------------------------10-----------5----
g-|--9-10-12-17-17-16-16-14---12-10-9-9----9-4-4-5-----5--
d-|-------------------------------------------------------
a-|-------------------------------------------------------
E-|-------------------------------------------------------

e-|-----------------------------
b-|-----------5------------5----
g-|--10-9-7-5---5-4-4-5~-----5--
d-|-----------------------------
a-|-----------------------------
E-|-----------------------------



Chorus - Slight Distortion:

e-|--x-x-x-x----0--1--0--1--0--1--3--0--0--1--3--0----0-0-0--
b-|--x-x-x-x----2--3--2--3--2--3--3--2--1--1--3--1----1-1-1--
g-|--x-x-x-x----2--2--2--2--2--2--0--2--2--2--0--0----0-0-0--
d-|--x-x-x-x----2--0--2--0--2--0--0--2--2--3--0--2----2-2-2--
a-|--x-x-x-x----0--0--0--0--0--0--2--0--0--3--2--3----3-3-3--
E-|-------------------------------3--------1--3--------------
            
Hard to play? Try these video lessons and learn fast. | Correct




comments powered by Disqus
↑ Back to top | Tablatures and chords are parodies/interpretations of the original songs. You may use it for private study, scholarship, research or language learning purposes only