>
 >
Explorers

Explorers Bass Tabs

Muse - Explorers chords, tabs, tablatures, lyrics

Guitar lessons | Add/correct | Request | Top 50 tabs Artists:  A B C D E F G H I J K L M N O P Q R S T U V W X Y Z 0-9

Explorers Bass Tabs – Muse

CD, Sheet music, Poster

Do you like Explorers? Share with your friends now
Bass TabsBass Tabs v2ChordsChords v2Ukulele
Band: Muse
Bassist: Chris Wolstenholme
Tuning: Standard   
  
"br" means bend and release. Those are 1/2 bends.

Verse: [0:44]
                       br           br       
G|---------------17----21--17-------21--17-------|
D|---------14-17--------------18-----------16----|
A|15----17---------------------------------br----|
E|-----------------------------------------------|

G|------------br---------------------------------|
D|---14-15----14-------13------10-12~------------|
A|17-------------15---------10-------------------|
E|-----------------------------------------------|

Pre-chorus and Chorus:

G|-----------------------------------------------------------------|
D|-----------------------------------------------------------------|
A|---------------7(x8)--8(x8)--5(x8)------------------------2(x8)--|
E|8(x40)--5(x8)-----------------------3(x8)--4(x8)--5(x16)---------|

Post-chorus:

G|---------------17----------19---\-16-13-------------------|
D|---------14-17-------16-19--------------15-12-------------|
A|3---/(15)-------------------------------------14-11-------|
E|----------------------------------------------------13-10-|

Verse:

G|----------------|----------------|----------------|----------------|
D|----------------|----------------|----------------|----------------|
A|----------------|----------------|----------------|8-----8--8------|
E|8-----8--8------|8-----8--8------|8-----8--8------|----------------|

G|----------------|----------------|----------------|----------------|
D|----------------|----------------|----------------|----------------|
A|11----11--11----|----------------|----------------|8-----8--8------|
E|----------------|8-----8--8------|10----10--10----|----------------|

G|----------------|----------------|----------------|-----------------------|
D|----------------|----------------|----------------|-----------------------|
A|----------------|----------------|8-----8--8------|8----------10-10-10-10-|
E|8-----8--8------|11----11--11----|----------------|-----------------------|

G|--------------------------------------------------------------------------|
D|--------------------------------------------------------------------------|
A|-------8(x8)--11(x8)----------------8(x8)----------------8(x12)-10-10-10\-|
E|8(x24)----------------8(x8)--10(x8)--------8(x8)--11(x8)------------------|

Chorus:

G|----------------|----------------|----------------|----------------|
D|----------------|----------------|----------------|----------------|
A|3--3----3-3-3---|----------------|7--7----7-7-7---|8--8----8-8-8---|
E|------3-------3-|5--5--0-5-5-5-0-|------7-------7-|------8-------8-|

G|----------------|----------------|----------------|----------------|
D|----------------|5--5----5-5-5---|6--6----6-6-6---|7--7----7-7-7---|
A|5--5----5-5-5---|------5-------5-|------6-------7-|------7-------7-|
E|------5-------5-|----------------|----------------|----------------|

G|----------------|----------------|
D|7--7----7-7-7---|9--9----9-9-9-9-|
A|------7-------8-|------9---------|
E|----------------|----------------|

Interlude:

G|-------------------------------------------------------------------------|
D|-------------------------------------------------------------------------|
A|------5(x8)-------7(x8)--8(x8)-------5(x8)-------------------------------|
E|5(x8)-------3(x8)--------------5(x8)-------6(x8)--8(x8)--5(x12)--9-99999-|

Chorus:

G|----------------|----------------|----------------|----------------|
D|----------------|----------------|4--4----4-4-4---|5--5----5-5-5---|
A|5--5----5-5-5---|2--2----2-2-2---|------4-------4-|------5-------5-|
E|------5-------5-|------2-------2-|----------------|----------------|

G|----------------|----------------|----------------|----------------|
D|2--2----2-2-2---|----------------|----------------|----------------|
A|------2-------2-|----------------|1--1----1-1-1---|2--2----2-2-2---|
E|----------------|5--5--0-5-5-5-0-|------1-------2-|------2-------2-|

G|----------------|----------------|----------------|----------------|
D|----------------|----------------|----------------|------------2-3-|
A|2--2----2-2-2---|4--4----4-444444|5-5-5-5-5-5-5-4-|2-2-2-2-2-2-----|
E|------2-------2-|------4---------|----------------|----------------|

G|----------------|----------------|----------------|----------------|
D|4-4-4-4-4-4-2-4-|5-5-5-5-5-5-5-4-|2-2-2-2-2-2-2---|----------------|
A|----------------|----------------|--------------2-|----------------|
E|----------------|----------------|----------------|5-5-5-5-5-5-4-5-|

G|----------------|----------------|----------------|----------------|
D|----------------|----------------|----------------|----------------|
A|----------------|----------------|----------------|4-4-4-4-4-4-2-4-|
E|6-6-6-6-6-6-4-6-|7-7-7-7-7-7-7-7-|7-7-7-7-7-7-5-7-|----------------|

Ending:
                       br         br
G|---------------19----23--19-------23--19-------|
D|-----/14-16-19--------------20-----------18----|
A|5~---------------------------------------br----|
E|-----------------------------------------------|

G|------------br-----------------------------------------------------|
D|---16-17----16-------15------12-14---------\0~---------------------|
A|19-------------17---------12---------------------------------------|
E|-------------------------------------------------------------------|

br  bend-release
()  ghost note
/   slide up
\   slide down
h   hammer-on
p   pull-off
~  let ring





Comments


Popular Muse tabs & chords
Burning Bandits Bass Tabs
I Belong To You 2 Bass Tabs
Recess 2 Bass Tabs
A Crying Shame Intro Tabs
Bliss Tabs
City Of Delusion 4 Tabs
Guiding Light 2 Tabs
I Belong To You Tabs
Let Me Get What I Want Tabs
Sunburn Intro Tabs


Song lyrics



↑ Back to top | Tablatures and chords are parodies/interpretations of the original songs. You may use it for private study, scholarship, research or language learning purposes only
© 2014 AZChords.com Contact us | Privacy policy | DMCA | Add/correct tabs | Request tabs | Top 50 tabs