» » »

Exo-politics Tabs (ver.4)

Artists:  A B C D E F G H I J K L M N O P Q R S T U V W X Y Z # 

Exo-politics Tabs (ver.4)

Muse
Rating:
0/5 (0 votes)

Tabs too difficult? Try these video lessons and learn fast.
                Muse - Exopolitics

The solo in the other tab is good but its not quite right, I tried doin my own so here 
is but I think mines sounds ok, aslong as you play this tab to the music you¡¦ll get it ƒº

 |---------------------------------------|
 |---------------------------------------|
 |14-14-12-------------------------------|
 |---------15-14-15-------15-14----------|
 |------------------15-12-------15-12-12-|
 |---------------------------------------|

 |----------------------------------------------|
 |----------------------------------------------|
 |-14-14-12-------------------------------------|
 |----------15-14-15-------15-14----------------|
 |-------------------15-12-------15-12s10h12-13-|
 |----------------------------------------------|

 |-------------------------------------------|
 |-------------13----------------------------|
 |-15-15-14-15----15-14-14h15p14-------------|
 |-------------------------------15-14-14-11-|
 |-------------------------------------------|
 |-------------------------------------------|

 |---------------------------------------------------|
 |---------------------------------------------------|
 |-14-14-12-14-14b15bd14-----------------------------|
 |-----------------------17-15-14-15b17bd15-15-14-15-|
 |---------------------------------------------------|
 |---------------------------------------------------|

 |-------------------------------------------|
 |-------------13----------------------------|
 |-15-15-14-15----15-14-14h15p14-------------|
 |-------------------------------15-14-14-11-|
 |-------------------------------------------|
 |-------------------------------------------|

 |----------------------------------|
 |-------------10----8-----6----5---|
 |-14-14-12-14-12b14-10b12-8b10-7b9-|
 |----------------------------------|
 |----------------------------------|
 |----------------------------------|

 >BRADLEY.E<
            
Tabs too difficult? Try these video lessons and learn fast.




comments powered by Disqus
↑ Back to top | Tablatures and chords are parodies/interpretations of the original songs. You may use it for private study, scholarship, research or language learning purposes only