» » »

Exo-politics Bass tabs (ver.1)

Artists:  A B C D E F G H I J K L M N O P Q R S T U V W X Y Z # 

Exo-politics Bass tabs (ver.1)

Muse
Rating:
0/5 (0 votes)

Tabs too difficult? Try these video lessons and learn fast.
                Muse
Exo-politics aka burning bandits
bassist-Chris Wolstenholme

verse
G-------------------------------------|
D-------------------------------------|          x2
A-5--5--5---5h7-8-8-7-8-7-------------|
E---------8----------------8----------|

G--------------------------------------------------------------|
D--------------------------------------------------------------|
A-1--1--1-0-1-3----------------------------------3-5--5-3-5-3\-|
E------------------1--1--1-0-1-3--5--5--5-3-5------------------|

G--------------------------------------------------------------|
D--------------------------------------------------------------|
A-1--1--1-0-1-3------------------------------------------3h5---|
E------------------1--1--1-0-1-3--5--5--5-3-5--5--5-6-5-3------|

bridge im not sure about but looking aorund this is wht i think it may be
G----------------------------------------------------10-----10-10------|
D-12------12-12------12-12\10------10-10------10-10---------------8888-|
A-------------------------------------------------------8x4------------|
E-----10x4-----10x2-------------8x4--------8x2-------------------------|

G---------------------------------|
D-------------3-------------------|
A-5--5--5-3-5---5--5-3-1-0-1-3----|
E---------------------------------|

G----------------------------------------------------10-----10-10------|
D-12------12-12------12-12\10------10-10------10-10---------------8888-|
A-------------------------------------------------------8x4------------|
E-----10x4-----10x2-------------8x4--------8x2-------------------------|

chrous
G--------------------------------------------------------------------------|
D--------------------------------------------------------------------------|
A1-1-1-1-1-0-1-3----------------------------------------3-5-5-5-5-5-3-3-3\-|
E---------------------1-1-1-1-1-0-1-3/5-5-5-5-5-3-5------------------------|

verse x2

bridge

chrous x2
G---------------------------|
D---------------------------|
A-5--5--5---5h7-8-8-7-8-7---|
E---------8---------------8-|

end on
G----
D----
A----
E-5--
            
Tabs too difficult? Try these video lessons and learn fast.




comments powered by Disqus
↑ Back to top | Tablatures and chords are parodies/interpretations of the original songs. You may use it for private study, scholarship, research or language learning purposes only