» » »

Muse, Exo-politics Bass tabs (ver.3)

Artists:  A B C D E F G H I J K L M N O P Q R S T U V W X Y Z # 

Exo-politics Bass tabs (ver.3)

Muse Tabs
 Rating:
4/5 (4 votes)
Exo-politics lessons Tabs too difficult? Try these video lessons and learn fast
                Muse - Exo-Politics

Bassist - Chris Wolstenholme

Intro- guitar and drums only

Verse-
G-------------------------| x2
D-----------2-3-3-2h3p2---|
A-5-5-5-3-5-------------3-|
E-------------------------|

G--------------------------------------------------|
D--------------------------------------------------|
A-1-1--1-0-1-3-------------------------3-5-5-3-5-3-|
E--------------1-1--1-0-1-3--5-5-5-3-5-------------|

G----------------------------------------------------------|
D----------------------------------------------------------|
A-1-1--1-0-1-3---------------------------------------3-5---|
E--------------1-1--1-0-1-3--5-5-5-3-5-6-5-5-6-5-3-5-------|

Pre Chorus-
G---------------------------------------------------------|
D---------------------------------------------------------|
A---5-5-5-x-5-5---5-5-5-x-5-5---3-3-3-x-3-3---3-3-3-x-3-3-|
E---------------------------------------------------------|

G-----------------------------|
D-----------------------------|
A---8-8-8-x-8-8---------------|
E-----------------6-6-6-x-6-6-|

G----------------------------|
D-----------3----------------|
A-5-5-5-3-5---5-5-3-1-0-1-3--|
E----------------------------|

G---------------------------------------------------------|
D---------------------------------------------------------|
A---5-5-5-x-5-5---5-5-5-x-5-5---3-3-3-x-3-3---3-3-3-x-3-3-|
E---------------------------------------------------------|

G-----------------------------|
D-----------------8-8-8-x-8-8-|
A---8-8-8-x-8-8---------------|
E-----------------------------|

G----------------------------|
D-----------3----------------|
A-5-5-5-3-5---5-5-3-1-0-1-3--|
E----------------------------|

Chorus-
G------------------------------------------------------------------|
D------------------------------------------------------------------|
A-1-1-1-1-1-0-3-1--------------------------------3-5-5-5-5-3-5-3-5-|
E-----------------1-1-1-1-1-0-3-1--5-5-5-5-5-3-5-------------------|

G--------------------------------------------------------------------|
D--------------------------------------------------------------------|
A-1-1-1-1-1-0-3-1------------------------------------------------3-5-|
E-----------------1-1-1-1-1-0-3-1--5-5-5-5-5-3-5-6-5-5-5-6-5-3-5-----|

Guitar Solo-
G-------------------------| x2
D-----------2-3-3-2h3p2---|
A-5-5-5-3-5-------------3-|
E-------------------------|

G--------------------------------------------------|
D--------------------------------------------------|
A-1-1--1-0-1-3-------------------------3-5-5-3-5-3-|
E--------------1-1--1-0-1-3--5-5-5-3-5-------------|

G----------------------------------------------------------|
D----------------------------------------------------------|
A-1-1--1-0-1-3---------------------------------------3-5---|
E--------------1-1--1-0-1-3--5-5-5-3-5-6-5-5-6-5-3-5-------|

Verse-
G-------------------------| x2
D-----------2-3-3-2h3p2---|
A-5-5-5-3-5-------------3-|
E-------------------------|

G--------------------------------------------------|
D--------------------------------------------------|
A-1-1--1-0-1-3-------------------------3-5-5-3-5-3-|
E--------------1-1--1-0-1-3--5-5-5-3-5-------------|

G----------------------------------------------------------|
D----------------------------------------------------------|
A-1-1--1-0-1-3---------------------------------------3-5---|
E--------------1-1--1-0-1-3--5-5-5-3-5-6-5-5-6-5-3-5-------|

Pre Chorus-
G---------------------------------------------------------|
D---------------------------------------------------------|
A---5-5-5-x-5-5---5-5-5-x-5-5---3-3-3-x-3-3---3-3-3-x-3-3-|
E---------------------------------------------------------|

G-----------------------------|
D-----------------------------|
A---8-8-8-x-8-8---------------|
E-----------------6-6-6-x-6-6-|

G----------------------------|
D-----------3----------------|
A-5-5-5-3-5---5-5-3-1-0-1-3--|
E----------------------------|

G---------------------------------------------------------|
D---------------------------------------------------------|
A---5-5-5-x-5-5---5-5-5-x-5-5---3-3-3-x-3-3---3-3-3-x-3-3-|
E---------------------------------------------------------|

G-----------------------------|
D-----------------8-8-8-x-8-8-|
A---8-8-8-x-8-8---------------|
E-----------------------------|

G----------------------------|
D-----------3----------------|
A-5-5-5-3-5---5-5-3-1-0-1-3--|
E----------------------------|

Chorus x2-
G------------------------------------------------------------------|
D------------------------------------------------------------------|
A-1-1-1-1-1-0-3-1--------------------------------3-5-5-5-5-3-5-3-5-|
E-----------------1-1-1-1-1-0-3-1--5-5-5-5-5-3-5-------------------|

G--------------------------------------------------------------------|
D--------------------------------------------------------------------|
A-1-1-1-1-1-0-3-1------------------------------------------------3-5-|
E-----------------1-1-1-1-1-0-3-1--5-5-5-5-5-3-5-6-5-5-5-6-5-3-5-----|

Outro-
G----------------------------------------------------|
D-----------2-3-3-2h3p2--------------2-3-3-2h3p2-----|
A-5-5-5-3-5-------------3--5-5-5-3-5-------------3-5-|
E----------------------------------------------------|

Fin!
            
Submit corrections

comments powered by Disqus
↑ Back to top | Muse Bass for Exo-politics. Lyrics for acoustic guitar and electric guitar. Tablatures and chords are parodies/interpretations of the original songs. You may use it for private study, scholarship, research or language learning purposes only