» » »

Exo-politics Tabs (ver.3)

Artists:  A B C D E F G H I J K L M N O P Q R S T U V W X Y Z # 

Exo-politics Tabs (ver.3)

Muse
Rating:
0/5 (0 votes)
Tabs too difficult? Try these video lessons and learn fast.
                                                -|MUSE|-
                Exo-Politics (Black Holes And Revolution)
                        ----    Couplet I    ----

guitar 1(distortion)
e|--------------------------------------------------------------------------|
 |--------------------------------------------------------------------------|
 |----xxx-------------------------------------------------------------------|
 |----xxx-------------------------------------------------------------------|
 |----xxx--5--5--5-3-5-7-8--8--7^--3--5--5--5-3-5-7-8--8--7^--3-------------|
E|--------------------------------------------------------------------------|

e|--------------------------------------------------------------------------|
 |--------------------------------------------------------------------------|
 |--------------------------------------------------------------------------|
 |--------------------------------------------------------------------------|
 |--5--5--5-3-5-7-8--8--7^--3--5--5--5-3-5-7-8--8--7^--3--------------------|
E|-------------------------------------------------------6--6--6-5-6-8-1----|

e|--------------------------------------------------------------------------|
 |--------------------------------------------------------------------------|
 |--------------------------------------------------------------------------|
 |--------------------------------------------------------------------------|
 |-------------------------3-5--5--3-5-3-2----------------------------------|
E|--1--1-0-1-3-5--5--5-3-5-----------------6--6--6-5-6-8-1--1--1-0-1-3-5--5-|

e|--------------------------------------------------------------------------|
 |--------------------------------------------------------------------------|
 |--------------------------------------------------------------------------|
 |--------------------------------------------------------------------------|
 |-----------------------3-5--5--5-3-5-7-8--8--7^--3--5--5--5-3-5-7-8--8----|
E|--5-3-5-6-5--5-6-5-3-5----------------------------------------------------|

e|--------------------------------------------------------------------------|
 |--------------------------------------------------------------------------|
 |--------------------------------------------------------------------------|
 |--------------------------------------------------------------------------|
 |--7^--3-----------------------------------------3-5--5--3-5-3-2-----------|
E|--------6--6--6-5-6-8-1--1--1-0-1-3-5--5--5-3-5-----------------6--6--6-5-|

e|--------------------------------------------------------------------------|
 |--------------------------------------------------------------------------|
 |----------------------------------------------------x-x-x-------x-----xxx-|
 |----------------------------------------------------x-x-x----x--x-x-x-xxx-|
 |-----------------------------------------------3-5--x-x-x----x--x-x-x-xxx-|
E|--6-8-1--1--1-0-1-3-5--5--5-3-5-6-5--5-6-5-3-5---------------x----x-x-----|

                        ----     REFRAIN     ----

guitar 1(distortion)+ guitar 2(overdrive)
When the zetas fill the skies
Dm                      C
Will our leaders tell us why
F       A#               Dm  Cm-Dm-Fm-Dm--Cm#-Am#-Am-Am#-Cm#
Fully loaded satellites
Dm             C
Trigger nothing but our minds
F       A#              Dm  Cm-Dm-Fm-Dm--Cm#-Am#-Am-Am#

But I'm waiting patiently
A#         F    A D
I'll wait for a sign
A#        F

                        ----    Couplet II    ----

guitar 1(distortion):
e|--------------------------------------------------------------------------|
 |--------------------------------------------------------------------------|
 |--------------------------------------------------------------------------|
 |--------------------------------------------------------------------------|
 |---------5--5--5-3-5-7-8--8--7^--3--5--5--5-3-5-7-8--8--7^--3-------------|
E|--------------------------------------------------------------------------|

e|--------------------------------------------------------------------------|
 |--------------------------------------------------------------------------|
 |--------------------------------------------------------------------------|
 |--------------------------------------------------------------------------|
 |--5--5--5-3-5-7-8--8--7^--3--5--5--5-3-5-7-8--8--7^--3--------------------|
E|-------------------------------------------------------6--6--6-5-6-8-1----|

e|--------------------------------------------------------------------------|
 |--------------------------------------------------------------------------|
 |--------------------------------------------------------------------------|
 |--------------------------------------------------------------------------|
 |-------------------------3-5--5--3-5-3-2----------------------------------|
E|--1--1-0-1-3-5--5--5-3-5-----------------6--6--6-5-6-8-1--1--1-0-1-3-5--5-|

e|--------------------------------------------------------------------------|
 |--------------------------------------------------------------------------|
 |--------------------------------------------------------------------------|
 |--------------------------------------------------------------------------|
 |-----------------------3-5--5--5-3-5-7-8--8--7^--3--5--5--5-3-5-7-8--8----|
E|--5-3-5-6-5--5-6-5-3-5----------------------------------------------------|

e|--------------------------------------------------------------------------|
 |--------------------------------------------------------------------------|
 |--------------------------------------------------------------------------|
 |--------------------------------------------------------------------------|
 |--7^--3-----------------------------------------3-5--5--3-5-3-2-----------|
E|--------6--6--6-5-6-8-1--1--1-0-1-3-5--5--5-3-5-----------------6--6--6-5-|

e|--------------------------------------------------------------------------|
 |--------------------------------------------------------------------------|
 |----------------------------------------------------x-x-x-------x-----xxx-|
 |----------------------------------------------------x-x-x----x--x-x-x-xxx-|
 |-----------------------------------------------3-5--x-x-x----x--x-x-x-xxx-|
E|--6-8-1--1--1-0-1-3-5--5--5-3-5-6-5--5-6-5-3-5---------------x----x-x-----|

guitar 2 solo(overdrive):
e|--------------------------------------------------------------------------|
 |--10--8-6-5-6-----5-6------10--8-6-5-6-----5-6---------11--10-11-13-11-10-|
 |--------------5-------5----------------5-------5--------------------------|
 |----------------7-------7----------------7-------7-7-8--------------------|
 |--------------------------------------------------------------------------|
E|--------------------------------------------------------------------------|

e|---------------------------------------------------------------------------|
 |--101110-8-6-5---10--8-10-11-10-8-6-5-6-686-5-6--11--10-11-13-11-10-101110-|
 |---------------6-----------------------------------------------------------|
 |---------------------------------------------------------------------------|
 |---------------------------------------------------------------------------|
E|---------------------------------------------------------------------------|

e|--------------------------------------------------------------------------|
 |--8-6-5---10--x10-8-6-5---------------------------------------------------|
 |--------6-----------------------------------------------------------------|
 |--------------------------------------------------------------------------|
 |--------------------------------------------------------------------------|
E|--------------------------------------------------------------------------|

                        ----     REFRAIN     ----

guitar 1(distortion)+ guitar 2(overdrive)
When the zetas fill the skies
Dm                      C
Will our leaders tell us why
F       A#               Dm  Cm-Dm-Fm-Dm--Cm#-Am#-Am-Am#-Cm#
Fully loaded satellites
Dm             C
Trigger nothing but our minds
F       A#              Dm  Cm-Dm-Fm-Dm--Cm#-Am#-Am-Am#

But I'm waiting patiently
A#         F    A D
I'll wait for a sign
A#        F

guitar 1 (distortion):
e|--------------------------------------------------------------------------|
 |--------------------------------------------------------------------------|
 |--------------------------------------------------------------------------|
 |--------------------------------------------------------------------------|
 |--5--5--5-3-5-7-8--8--7^--3--5--5--5-3-5-7-8--8--7^--3-5------------------|
E|--------------------------------------------------------------------------|

guitar 2 (overdrive):
e|--------------------------------------------------------||
 |--------------------------------------------------------||
 |--7--------------------------7-------------------------7||
 |--7--------------------------7-------------------------7||
 |--5--------------------------5-------------------------5||
E|--------------------------------------------------------||
            
Tabs too difficult? Try these video lessons and learn fast.


comments powered by Disqus
↑ Back to top | Tablatures and chords are parodies/interpretations of the original songs. You may use it for private study, scholarship, research or language learning purposes only