» » »

Muse, Exogenesis Symphony Part 3 Redemption Bass tabs (ver.2)

Artists:  A B C D E F G H I J K L M N O P Q R S T U V W X Y Z # 

Exogenesis Symphony Part 3 Redemption Bass tabs (ver.2)

Muse Tabs
 Rating:
4/5 (4 votes)
Exogenesis Symphony Part 3 Redemption lessons Tabs too difficult? Try these video lessons and learn fast
                Band: Muse
Bassist: Chris Wolstenholme
Tuning: Dropped D

Very easy, no bass till 0:53

G|--------------------------------| 
D|--------2~--2~------------------|
A|----2~----------3~------5~------|
D|5~------------------5~------5~--|

G|--------------------------------|
D|--------1(x12)----------1(x12)--|
A|1(x12)----------1(x12)----------|
D|--------------------------------| x2

G|--------------------------------------------------|  |
D|6-66666-66666-66666-66666-66666-66666-66666-6666--|  |
A|--------------------------------------------------|  |
D|--------------------------------------------------|  |
                                                       | x2
G|--------------------------------------------------|  |
D|--------------------------------------------------|  |
A|6-66666-66666-66666-66666-66666-66666-66666-6666--|  |
D|--------------------------------------------------|  |

G|--------------------------------------------------|  
D|6-66666-66666-66666-66666-66666-66666-66666-6666--|  
A|--------------------------------------------------|  
D|--------------------------------------------------| 

G|--------------------------------------------------|  
D|--------------------------------------------------|  
A|6-66666-66666-66666-6666-5-55555-55555-55555-5555-|  
D|--------------------------------------------------| 

G|--------------------------------------------------|  
D|--------------------------------------------------|  
A|3-33333-33333-33333-3333-1-11111-11111-11111-1111-|  
D|--------------------------------------------------|  

G|--------------------------------------------------|
D|--------------------------------------------------|
A|--------------------------------------------------|
D|6-66666-66666-66666-6666-5-55555-55555-55555-5555-|

G|--------------------------------------------------|
D|--------------------------------------------------|
A|--------------------------------------------------|
D|3-33333-33333-33333-3333-1-11111-11111-11111-1111-|

G|--------------------------------------------------|
D|--------------------------------------------------|
A|--------------------------------------------------|
D|0-00000-00000-00000-00000-00000-00000-00000-00000/|

G|--------------------------------------------------|----------------|
D|--------------------------------------------------|----------------|
A|5-55555-55555-55555-55555-55553-33332-22220-0--0--|----------------|
D|--------------------------------------------------|5~--------------|

If You want to play ending along with piano then play intro again.

Hope that You'll find this tab useful. Please rate and check out other

/  slide up
\  slide down
h  hammer-on
p  pull-off
~  let ring
            
Submit corrections

comments powered by Disqus
↑ Back to top | Muse Bass for Exogenesis Symphony Part 3 Redemption. Lyrics for acoustic guitar and electric guitar. Tablatures and chords are parodies/interpretations of the original songs. You may use it for private study, scholarship, research or language learning purposes only