» » »

Exogenesis Symphony Part 3 Redemption Tabs (ver.2)

Artists:  A B C D E F G H I J K L M N O P Q R S T U V W X Y Z # 

Exogenesis Symphony Part 3 Redemption Tabs (ver.2)

Muse
Rating:
0/5 (0 votes)

Hard to play? Try these video lessons and learn fast.
                Exogenesis: Symphony Part 3 (Redemption)		


Timings between right and left hand are approximate

	Intro (slow, 12/8 time)
	e|-------------------------|
	B|-------------------------|
	G|-----4-----4-----4-----4-|  x2
	D|---5-----5-----5-----5---|
	A|-5-----5-----5-----5-----|
	E|-------------------------|


        Main Theme
	e|-------------------------|-------------------------|-------------------------|
	B|-12----------------------|-12----------------------|-12-----------10---8-----|	
        G|-------------------------|-------------------------|-------------------------|
        D|-------------------------|-------------------------|-------------------------|
	A|-------------------------|-------------------------|-------------------------|
	E|-------------------------|-------------------------|-------------------------|

	e|-------------------------|-------------------------|-------------------------|
	B|-------------------------|-------------------------|-------------------------|	
        G|-----4-----4-----4-----4-|-----4-----4-----4-----4-|-----4-----4-----4-----4-|
        D|---5-----5-----5-----5---|---4-----4-----4-----4---|---5-----5-----5-----5---|
	A|-5-----5-----5-----5-----|-6-----6-----6-----6-----|-7-----7-----7-----7-----|
	E|-------------------------|-------------------------|-------------------------|

	e|-------------------------|-12----------10----------|-------------------------|
	B|-8-----------------5-----|-------------------13----|-12---8------------7-----|	
        G|-------------------------|-------------------------|---------7---------------|	
        D|-------------------------|-------------------------|-------------------------|
	A|-------------------------|-------------------------|-------------------------|
	E|-------------------------|-------------------------|-------------------------|

	e|-------------------------|-------------------------|-------------------------|
	B|-------------------------|-------------------------|-------------------------|	
        G|-----5-----5-----5-----5-|-----5-----5-----5-----5-|-----4-----4-----4-----4-|
        D|---5-----5-----5-----5---|---5-----5-----5-----5---|---5-----5-----5-----5---|
	A|-7-----7-----7-----7-----|-7-----7-----7-----7-----|-5-----5-----5-----5-----|
	E|-------------------------|-------------------------|-------------------------|

e|-------------------------|-------------------------|
B|-10----------------5-7-8-|-(8)---------------------|	
G|-------------------------|-------------------------|
D|-------------------2-----|-------------------------|
A|-------------------------|-------------------------|
E|-------------------------|-------------------------|

e|-------------------------|-------------------------|
B|-------------------------|-------------------------|
G|-----7-----5-----4-------|-----4-----4-----4-----4-|
D|---4-----4-----4-----4-5-|---5-----5-----5-----5---|
A|-5-----5-----5-----5-----|-5-----5-----5-----5-----|
E|-------------------------|-------------------------|

	(Repeat)

	e|-10----------------------|-10-8-6-8----------------|-10----------15----13----|
	B|-------------------------|-----------------------6-|-----------6-------------|	
        G|-------------------------|-------------------------|-------------------------|
        D|-------------------------|-------------------------|-------------------------|
	A|-------------------------|-------------------------|-------------------------|
	E|-------------------------|-------------------------|-------------------------|

	e|-------------------------|-------------------------|-------------------------|
	B|-------------------------|-------------------------|-------------------------|
        G|-----3-----3-----3-----3-|-----5-----5-----5-----5-|-----8-----8-----8-----8-|
        D|---5-----5-----5-----5---|---5-----5-----5-----5---|---5-----5-----5-----5---|
	A|-5-----5-----5-----5-----|-6-----6-----6-----6-----|-6-----6-----6-----6-----|
	E|-------------------------|-------------------------|-------------------------|

e|-13-------11-10-11-|-10-10-10-10-10-10-11-11-11-13-13-13-|-13-13-13-13-13-13-11-11-11-11-11-11-|
B|-------------------|-------------------------------------|-------------------------------------|
G|-------------------|--7--7--7--7--7--7--8--8--8-10-10-10-|-10-10-10-10-10-10--8--8--8--8--8--8-|
D|-------------------|-------------------------------------|-------------------------------------|
A|-------------------|-------------------------------------|-------------------------------------|
E|-------------------|-------------------------------------|-------------------------------------|

	e|-------------------------|-------------------------|-------------------------|
	B|-------------------------|-------------------------|-------------------------|
        G|-----8-----8-----8-----8-|-----7-----7-----7-----7-|-----8-----8-----8-----8-|
        D|---5-----5-----5-----5---|---8-----8-----8-----8---|---5-----5-----5-----5---|
	A|-6-----6-----6-----6-----|-5-----5-----5-----5-----|-6-----6-----6-----6-----|
	E|-------------------------|-------------------------|-------------------------|


	e|-10-10-10-10-10-10-11-11-11-13-13-13-|-13-13-13-13-13-13-11-11-11-11-11-11-|
	B|-------------------------------------|-------------------------------------|
        G|--7--7--7--7--7--7--8--8--8-10-10-10-|-10-10-10-10-10-10--8--8--8--8--8--8-|
        D|-------------------------------------|-------------------------------------|
	A|-------------------------------------|-------------------------------------|
	E|-------------------------------------|-------------------------------------|

e|-------------------------|-------------------------|
B|-------------------------|-------------------------|
G|-----7-----7-----7-----7-|-----8-----8-----8-----8-|
D|---8-----8-----8-----8---|---5-----5-----5-----5---|
A|-5-----5-----5-----5-----|-6-----6-----6-----6-----|
E|-------------------------|-------------------------|
            
Hard to play? Try these video lessons and learn fast. | Correct




comments powered by Disqus
↑ Back to top | Tablatures and chords are parodies/interpretations of the original songs. You may use it for private study, scholarship, research or language learning purposes only