» » »

Exogenesis Symphony Part 2 Cross-pollination Bass tabs (ver.1)

Artists:  A B C D E F G H I J K L M N O P Q R S T U V W X Y Z # 

Exogenesis Symphony Part 2 Cross-pollination Bass tabs (ver.1)

Muse
Rating:
0/5 (0 votes)

Hard to play? Try these video lessons and learn fast.
                Band: Muse
Bassist: Chris Wolstenholme
Tuning: Standard

No bass till [0:56]

G|----------|
D|----------|
A|8~--------| 
E|----------| 

I think that these are double bass notes but I'm not sure
Play this part softly [1:04]

G|--------------------------------------------------------------------|
D|-------------------------------10~----------------------------------|
A|8~---6~---7~---8~---8~---10~---------8~---11~---------11~-----------|
E|-------------------------------------------------0~---------0~------|

Fade in (electric bass):

G|----------|
D|----------|
A|3(x32)----|
E|----------|

G|------------------|------------------|
D|------------------|------------------|
A|333-3-33-333-3-33-|---------333-3-33-|
E|------------------|333-3-33----------|

G|------------------|------------------|
D|333-3-33----------|------------------|
A|---------333-3-33-|------------------|
E|------------------|333-3-33-333-3333-|

G|------------------|------------------|
D|------------------|------------------|
A|333-3-33-333-3-33-|---------333-3-33-|
E|------------------|333-3-33----------|

G|------------------|------------------|
D|333-3-33----------|------------------|
A|---------333-3-33-|------------------|
E|------------------|333-3-33-333-\111-|

G|----8--8-----8--8-|-------------8--8-|
D|------------------|------------------|
A|666---6--666---6--|---------666---6--|
E|------------------|666-6-66----------|

G|-------------8--8\|------------------|
D|666-6-66----------|------------------|
A|---------666---6--|------------------|
E|------------------|333-3-33-33331111-|

G|----8--8-----8--8-|-------------8--8-|
D|------------------|------------------|
A|666---6--666---6--|---------666---6--|
E|------------------|666-6-66----------|

G|-------------8--8\|--------------------------|
D|666-6-66----------|--------------------------|
A|---------666---6--|---------------------3~---|
E|------------------|333-3-33-333\1-1-1--------|

Didn't hear bass but here's tab if You Want to play song till
the end along with piano. There are some timings for A string notes
to make this easier. Optional outro:

 [2:55]         [3:05]                   [3:21]       [3:35]   
G|----------------------------------------------------------------------|
D|----------------------------------------------------------------------|
A|3~-------------3~-----------------------3~-------6~--5~--------3~-----|
E|-----4~---1~--------4~--------4~---1~---------------------------------|

Hope that You'll find this tab useful. Please rate and check out other
MUSE tabs made by me.

/  slide up
\  slide down
h  hammer-on
p  pull-off
~  let ring
            
Hard to play? Try these video lessons and learn fast. | Correct




comments powered by Disqus
↑ Back to top | Tablatures and chords are parodies/interpretations of the original songs. You may use it for private study, scholarship, research or language learning purposes only