» » »

Muse, Endlessly Tabs (ver.2)

Artists:  A B C D E F G H I J K L M N O P Q R S T U V W X Y Z # 

Endlessly Tabs (ver.2)

Muse Tabs
 Rating:
4/5 (4 votes)
Endlessly lessons Tabs too difficult? Try these video lessons and learn fast
1
                Muse - Endlessly
Simple, but brilliant

Intro and verse, 0:03

   Dsus2/Asus4      Am     Asus4 Am    E7                E
 |-0---0---0---0---|-0---0---0---0---|-0---0---0---0---|-0---0---0---0---|
B|-3---3---3---3---|-1---1---3---1---|-3---3---3---3---|-0---0---0---0---|
G|-2---2---2---2---|-2---2---2---2---|-4---4---4---4---|-1---1---1---1---|
D|-----------------|-----------------|-----------------|-2---2---2---2---|
A|---0---0---0---0-|---0---0---0---0-|---2---2---2---2-|-----------------|
E|-----------------|-----------------|-----------------|---0---0---0---0-|

Chorus: (Play each chord a bar, except for Aaug and Am) 0:38
  Dm          Am          Dm          F           C
e|--1--|--1--|--0--|--0--|--1--|--1--|--1--|--1--|--0--|--0--|
B|--3--|--3--|--1--|--1--|--3--|--2--|--1--|--1--|--1--|--1--|
G|--2--|--2--|--2--|--2--|--2--|--3--|--2--|--2--|--0--|--0--|
D|--0--|--0--|--2--|--2--|--0--|--0--|--3--|--3--|--2--|--2--|
A|-----|-----|--0--|--0--|-----|-----|--3--|--3--|--3--|--3--|
E|-----|-----|-----|-----|-----|-----|--1--|--1--|-----|-----|

  E           Gm76  Aaug Am  Asus4 Dm    G           C
e|--0--|--0--|--0--|--1--0--|--0--|--1--|-----|-----|--0--|--0--|
B|--0--|--0--|--3--|--2--1--|--3--|--3--|--3--|--3--|--1--|--1--|
G|--1--|--1--|--0--|--2--2--|--2--|--2--|--4--|--4--|--0--|--0--|
D|--2--|--2--|--3--|--3--2--|--2--|--3--|--5--|--5--|--2--|--2--|
A|--2--|--2--|--1--|--0--0--|--0--|-----|--5--|--5--|--3--|--3--|
E|--0--|--0--|-----|--------|-----|-----|--3--|--3--|-----|-----|

Verse 1:21
Chorus 1:56
Bridge, 2:40 Play twice
  Am                             F            Am
e|-0------0------0------0------|-1------1------0------0------|
B|----1------1------1------1---|----1------1------1------1---|
G|------2------2------2------2-|------2------2------2------2-|
D|-----------------------------|-----------------------------|
A|-----------------------------|-----------------------------|
E|-----------------------------|-----------------------------|

   E7                            E
e|-0------0------0------0------|-0------0------0------0------|
B|----3------3------3------3---|----0------0------0------0---|
G|------4------4------4------4-|------1------1------1------1-|
D|-----------------------------|-----------------------------|
A|-----------------------------|-----------------------------|
E|-----------------------------|-----------------------------|

Last Chorus: (Play each riff a bar full, except at the *)
  Dm                Am                 D                F
e|-1------|-1------|-0------|-0------|-1------|-1------|-1------|
B|----3---|----3---|----1---|----1---|----3---|----3---|--------|
G|------2-|------2-|------2-|------2-|------2-|------2-|----2---|
D|--------|--------|--------|--------|--------|--------|------3-|
A|--------|--------|--------|--------|--------|--------|--------|
E|--------|--------|--------|--------|--------|--------|--------|

  F         C                 E                Gm76      *  Aaug
e|-1------|-0------|-0------|-0------|-0------|-0------|-1------1------|
B|--------|----1---|----1---|----0---|----0---|----3---|----2------2---|
G|----2---|------0-|------0-|------1-|------1-|------0-|------2------2-|
D|------3-|--------|--------|--------|--------|--------|---------------|
A|--------|--------|--------|--------|--------|--------|---------------|
E|--------|--------|--------|--------|--------|--------|---------------|

  Am             Asus4    Dm       Gsus4             C
--0----0-------|-0------|-1------|-3------|-3------|-0------|-0------|
----1------1---|----3---|----3---|----1---|----1---|----1---|----1---|
------2------2-|------2-|------2-|------0-|------0-|------0-|------0-|
---------------|--------|--------|--------|--------|--------|--------|
---------------|--------|--------|--------|--------|--------|--------|
---------------|--------|--------|--------|--------|--------|--------|

End with C, or Matt`s dramatic outro in Wembly,
(Let the first two bottom notes ring):

e|------11---10-----------/-|
B|------13---10---14---13-/-|
G|-12-------------12------/-|
D|-10---------------------/-|
A|-10---------------------/-|
E|------------------------/-|

Corrections or anything send me a message.

                  ___   ___
|\    /| |    |  /     |
| \  / | |    |  \__   |_
|  \/  | |    |     \  |
|      |  \__/   ___/  |___
            
Submit corrections

comments powered by Disqus
↑ Back to top | Muse Tabs for Endlessly. Lyrics for acoustic guitar and electric guitar. 1 Tablatures and chords are parodies/interpretations of the original songs. You may use it for private study, scholarship, research or language learning purposes only