» » »

Muse, Easily Bass tabs (ver.3)

Artists:  A B C D E F G H I J K L M N O P Q R S T U V W X Y Z # 

Easily Bass tabs (ver.3)

Muse Tabs
Rating:
0/5 (0 votes)
Easily lessons Tabs too difficult? Try these video lessons and learn fast
                -------------------------------------------------------------------------------------------------
                                         EASILY - Muse
-------------------------------------------------------------------------------------------------


Tuning: Standard

Hey everybody this is my first tab so i'd like some feedback so comment!
It's pretty easy to play but it's a great song and feels good to play it right so here it is...
Oh and Chris uses the distortion / fuzz like in Hysteria for this song,
so if you have a pedal it sounds a lot better if you use it.



G||-------------|
D||--| 4 Bar |--|
A||--| Intro |--|
E||-------------|


Main Riff / Intro

G||--5-----------5---|--7-----------7---|--7-----------7----|--5-----------5---|
D||----7-7-77-77---7-|----5-5-55-55---5-|-------------------|------------------|
A||------------------|------------------|----8-8-88-88---8--|----7-7-77-77---7-|
E||------------------|------------------|-------------------|------------------|

G||--4-----------4---|--2-----------2---|--------------10---|--9-----------9---|
D||------------------|------------------|-10--------------7-|----6-6-66-66---6-|
A||----5-5-55-55---5-|----3-3-33-33---3-|----8-8-88-88------|------------------|
E||------------------|------------------|-------------------|------------------|


Main Riff / Verse 1  x2

G||--5-----------5---|--7-----------7---|--7-----------7----|--5-----------5---|
D||----7-7-77-77---7-|----5-5-55-55---5-|-------------------|------------------|
A||------------------|------------------|----8-8-88-88---8--|----7-7-77-77---7-|
E||------------------|------------------|-------------------|------------------|

G||--4-----------4---|--2-----------2---|--------------10---|--9-----------9---|
D||------------------|------------------|-10--------------7-|----6-6-66-66---6-|
A||----5-5-55-55---5-|----3-3-33-33---3-|----8-8-88-88------|------------------|
E||------------------|------------------|-------------------|------------------|


Pre-Chorus

G||--5-----------5---|-5----------------|
D||----7-7-77-77---7-|---7-7-77-77-7----|
A||------------------|------------------|
E||------------------|------------------|


Chorus 1  x2

G||------------------|------------------|------------------|------------------|
D||-7-----7-5-----5--|-5-------------5--|-3-0-0-302-----2--|-2----------------|
A||---0-0--0--3-3--3-|------------------|-----------0-0--0-|------------------|
E||------------------|---3-3-33-33-3--3-|------------------|---0-0-00-00-0-0--|

After Chorus

G||------------------|
D||------------------|
A||-7\---------------|
E||------------------|


Main Riff / Verse 2  x2

G||--5-----------5---|--7-----------7---|--7-----------7----|--5-----------5---|
D||----7-7-77-77---7-|----5-5-55-55---5-|-------------------|------------------|
A||------------------|------------------|----8-8-88-88---8--|----7-7-77-77---7-|
E||------------------|------------------|-------------------|------------------|

G||--4-----------4---|--2-----------2---|--------------10---|--9-----------9---|
D||------------------|------------------|-10--------------7-|----6-6-66-66---6-|
A||----5-5-55-55---5-|----3-3-33-33---3-|----8-8-88-88------|------------------|
E||------------------|------------------|-------------------|------------------|


Pre-Chorus

G||--5-----------5---|-5----------------|
D||----7-7-77-77---7-|---7-7-77-77-7----|
A||------------------|------------------|
E||------------------|------------------|


Chorus 2  x2

G||------------------|------------------|------------------|------------------|
D||-7-----7-5-----5--|-5-------------5--|-3-0-0-302-----2--|-2----------------|
A||---0-0--0--3-3--3-|------------------|-----------0-0--0-|------------------|
E||------------------|---3-3-33-33-3--3-|------------------|---0-0-00-00-0-0--|

After Chorus

G||------------------|
D||------------------|
A||-7\---------------|
E||------------------|


Guitar Solo (Main Riff)  x2

G||--5-----------5---|--7-----------7---|--7-----------7----|--5-----------5---|
D||----7-7-77-77---7-|----5-5-55-55---5-|-------------------|------------------|
A||------------------|------------------|----8-8-88-88---8--|----7-7-77-77---7-|
E||------------------|------------------|-------------------|------------------|

G||--4-----------4---|--2-----------2---|--------------10---|--9-----------9---|
D||------------------|------------------|-10--------------7-|----6-6-66-66---6-|
A||----5-5-55-55---5-|----3-3-33-33---3-|----8-8-88-88------|------------------|
E||------------------|------------------|-------------------|------------------|


Pre-Chorus

G||--5-----------5---|-5----------------|
D||----7-7-77-77---7-|---7-7-77-77-7----|
A||------------------|------------------|
E||------------------|------------------|


Chorus 3  x4

G||------------------|------------------|------------------|------------------|
D||-7-----7-5-----5--|-5-------------5--|-3-0-0-302-----2--|-2----------------|
A||---0-0--0--3-3--3-|------------------|-----------0-0--0-|------------------|
E||------------------|---3-3-33-33-3--3-|------------------|---0-0-00-00-0-0--|

After Chorus

G||------------------|
D||------------------|
A||-7\---------------|
E||------------------|
            

comments powered by Disqus
↑ Back to top | Muse Bass for Easily. Lyrics for acoustic guitar and electric guitar. Tablatures and chords are parodies/interpretations of the original songs. You may use it for private study, scholarship, research or language learning purposes only