» » »

Easily Bass tabs (ver.2)

Artists:  A B C D E F G H I J K L M N O P Q R S T U V W X Y Z # 

Easily Bass tabs (ver.2)

Muse
Rating:
0/5 (0 votes)

Hard to play? Try these video lessons and learn fast.
                You will have to hear the song to get the rythm right.I play the chorus an octave or two 
so that was how I tabbed it.

            Intro
G:5----------5---7----------7---5----------5---4----------4---2-|
D:--7-7-77-77--7---5-5-55-55--5---3-3-33-33--3---2-2-22-22--2---|
A:--------------------------------------------------------------|
E:--------------------------------------------------------------|

G:---------2---0----------2---5----------10---9----------9---|
D:0-0-00-00--0------------------3-3-33-33---7---6-6-66-66--6-|
A:---------------3-3-33-33--3--------------------------------|
E:-----------------------------------------------------------|

            Verse 1
G:5----------5---7----------7---5----------5---4----------4---2-|
D:--7-7-77-77--7---5-5-55-55--5---3-3-33-33--3---2-2-22-22--2---|
A:--------------------------------------------------------------|
E:--------------------------------------------------------------|

G:---------2---0----------2---5----------10---9----------9---|
D:0-0-00-00--0------------------3-3-33-33---7---6-6-66-66--6-|
A:---------------3-3-33-33--3--------------------------------|
E:-----------------------------------------------------------|   x2

            Pre-chorus
G:5----------5---5----------5---|
D:--7-7-77-77--7---7-7-77-77--7-|
A:------------------------------|
E:------------------------------|

            Chorus 1(with octave)
G:9-----9-12-------12--12-0-0-00-00-0-0-10-------10-------------------|
D:--7-7--7---10-10---10--------------------12-12---1214-------14--19--|
A:------------------------------------------------------12-12---12----|
E:--------------------------------------------------------------------|

G:-------------------------|
D:-------------------------|
A:-------------------------|
E:12-12-1212-1212-12-12----|   x2

            Verse 2
G:5----------5---7----------7---5----------5---4----------4---2-|
D:--7-7-77-77--7---5-5-55-55--5---3-3-33-33--3---2-2-22-22--2---|
A:--------------------------------------------------------------|
E:--------------------------------------------------------------|

G:---------2---0----------2---5----------10---9----------9---|
D:0-0-00-00--0------------------3-3-33-33---7---6-6-66-66--6-|
A:---------------3-3-33-33--3--------------------------------|
E:-----------------------------------------------------------|   x2

            Pre-chorus
G:5----------5---5----------5---|
D:--7-7-77-77--7---7-7-77-77--7-|
A:------------------------------|
E:------------------------------|

            Chorus 2
G:9-----9-12-------12--12-0-0-00-00-0-0-10-------10-------------------|
D:--7-7--7---10-10---10--------------------12-12---1214-------14--19--|
A:------------------------------------------------------12-12---12----|
E:--------------------------------------------------------------------|

G:-------------------------|
D:-------------------------|
A:-------------------------|
E:12-12-1212-1212-12-12----|   x2

            Guitar solo
G:5----------5---7----------7---5----------5---4----------4---2-|
D:--7-7-77-77--7---5-5-55-55--5---3-3-33-33--3---2-2-22-22--2---|
A:--------------------------------------------------------------|
E:--------------------------------------------------------------|

G:---------2---0----------2---5----------10---9----------9---|
D:0-0-00-00--0------------------3-3-33-33---7---6-6-66-66--6-|
A:---------------3-3-33-33--3--------------------------------|
E:-----------------------------------------------------------|   x2

            Pre-chorus
G:5----------5---5----------5---|
D:--7-7-77-77--7---7-7-77-77--7-|
A:------------------------------|
E:------------------------------|

            Chorus 3
G:9-----9-12-------12--12-0-0-00-00-0-0-10-------10-------------------|
D:--7-7--7---10-10---10--------------------12-12---1214-------14--19--|
A:------------------------------------------------------12-12---12----|
E:--------------------------------------------------------------------|

G:-------------------------|
D:-------------------------|
A:-------------------------|
E:12-12-1212-1212-12-12----|   x4

            Outro
G:2-2-2-2-2-2-2-2-2-2-2-2-2-2-2-2-2-2-2-2-2-2-2-2-2-2-2-2-2-2-2-0-0-2--|
D:---------------------------------------------------------------------|
A:---------------------------------------------------------------------|
E:---------------------------------------------------------------------|
            
Hard to play? Try these video lessons and learn fast. | Correct




comments powered by Disqus
↑ Back to top | Tablatures and chords are parodies/interpretations of the original songs. You may use it for private study, scholarship, research or language learning purposes only