» » »

Muse, Debase Masons Grog Tabs (ver.1)

Artists:  A B C D E F G H I J K L M N O P Q R S T U V W X Y Z # 

Debase Masons Grog Tabs (ver.1)

Muse Tabs
Rating:
0/5 (0 votes)
Hard to play? Try these video lessons and learn fast.
                Muse - New D (Debase Masons Grog)

Drop D Tuning (D,a,d,g,b,e)

Key:
h.o   Hammer On
p.o   Pull Off
^       Full Bend
x      Mute String


Intro (Play 4 times, the 2nd two bars are with drums)
e --------------------------x-x-x-x-------------------------x-x-x-x-|
b --------------------------x-x-x-x-------------------------x-x-x-x-|
g --------------------------x-x-x-x-------------------------x-x-x-x-|
d --------------------------x-x-x-x-------------------------x-x-x-x-|
a --------------------------x-x-x-x-------------------------x-x-x-x-|
d --8-7-7-7-7-7-8-7-7-7-7-7-x-x-x-x-8-7-7-7-7-7-8-7-7-7-7-7-x-x-x-x-|

e --------------------------x-x-x-x-------------------------x-x-x-x-|
b --------------------------x-x-x-x-------------------------x-x-x-x-|
g --------------------------x-x-x-x-------------------------x-x-x-x-|
d --------------------------x-x-x-x-------------------------x-x-x-x-|
a --------------------------x-x-x-x-------------------------x-x-x-x-|
d --8-5-5-5-5-5-8-5-5-5-5-5-x-x-x-x-8-5-5-5-5-5-8-5-5-5-5-5-x-x-x-x-|

Fill
e -x-x-x-x-x-x-x-x-x-x-x-x-x-x-x-x-|
b -x-x-x-x-x-x-x-x-x-x-x-x-x-x-x-x-|
g -x-x-x-x-x-x-x-x-x-x-x-x-x-x-x-x-|
d -x-x-x-x-x-x-x-x-x-x-x-x-x-x-x-x-|
a -x-x-x-x-x-x-x-x-x-x-x-x-x-x-x-x-|
d -x-x-x-x-x-x-x-x-x-x-x-x-x-x-x-x-|

2nd Intro Part (Play twice)
e ------------------------------------------------------------------|
b ------------------------------------------------------------------|
g ------------------------------------------------------------------|
d ------------------------------------------------------------------|
a ------------------------------------------------------------------|
d --8-0-0-0-0-0-8-0-0-0-0-0-8-0-0-0-8-0-0-0-0-0-8-0-0-0-0-0-8-0-0-0-|

e ------------------------------------------------------x-x-x-x-x-x-|
b ------------------------------------------------------x-x-x-x-x-x-|
g ------------------------------------------------------x-x-x-x-x-x-|
d ------------------------------------------------------x-x-x-x-x-x-|
a ------------------------------------------------------x-x-x-x-x-x-|
d --8-0-0-0-0-0-8-0-0-0-0-0-8-0-0-0-8-0-0-0-0-0-8-0-0-0-x-x-x-x-x-x-|

Verse (Not 100% correct but it works, Play twice)
e --------------------------------------------------------------|
b --------------------------------------------------------------|
g --14-14-14-14-14-14-14-14-14-14-14-14-14-14-14-14-10-10-10-10-|
d --------------------------------------------------------------|
a --------------------------------------------------------------|
d --------------------------------------------------------------|

e ---------------------------------------------------------------|
b ---------------------------------------------------------------|
g --10-10 -10-10-14-14-14-14-14-14-14-14-12-12-12-12-12-12-12-12-|
d ---------------------------------------------------------------|
a ---------------------------------------------------------------|
d ---------------------------------------------------------------|

e --------------------------------------------------------------|
b --------------------------------------------------------------|
g --12-12-12-12-12-12-12-12-12-12-12-12-12-12-12-12-12-12-12-12-|
d --------------------------------------------------------------|
a --------------------------------------------------------------|
d --------------------------------------------------------------|

e --------------------------------------------------------------|
b --------------------------------------------------------------|
g --12-12-12-12-12-12-12-12-12-12-12-12-12-12-12-12-12-12-12-12-|
d --------------------------------------------------------------|
a --------------------------------------------------------------|
d --------------------------------------------------------------|

e ---------------------------------------------------------------|
b ---------------------------------------------------------------|
g --7-7-7-7-7-7-7-7-12-12-12-12-12-12-12-12-10-10-10-10-10-10-10-|
d ---------------------------------------------------------------|
a ---------------------------------------------------------------|
d ---------------------------------------------------------------|

e --------------------------------------------------------------|
b --------------------------------------------------------------|
g --10-10-10-10-10-10-10-10-10-10-10-10-10-10-10-10-10-10-10-10-|
d --------------------------------------------------------------|
a --------------------------------------------------------------|
d --------------------------------------------------------------|

e -------------------------------------------------------------|
b -------------------------------------------------------------|
g --10-10-10-10-10---------------------------------------------|
d -------------------------------------------------------------|
a -------------------------------------------------------------|
d -------------------------------------------------------------|

Oh Bridge, playing it this way does work but Bellamy plays them
as octaves, thanks to NoBlameNoShame for that, it is on the other
tab for this song (Play twice)
e -------------------------------------------------------------------------|
b -------------------------------------------------------------------------|
g -------------------------------------------------------------------------|
d --3-3-3-3-3-3-3-3-3-3-3-3-3-3-3-3-3-3-3-3-3-3-3-3-10-10-10-10-10-10-10-10|
a --3-3-3-3-3-3-3-3-3-3-3-3-3-3-3-3-3-3-3-3-3-3-3-3-10-10-10-10-10-10-10-10|
d --3-3-3-3-3-3-3-3-3-3-3-3-3-3-3-3-3-3-3-3-3-3-3-3-10-10-10-10-10-10-10-10|

e -------------------------------------------------------------------|
b -------------------------------------------------------------------|
g -------------------------------------------------------------------|
d --5-5-5-5-5-5-5-5-5-5-5-5-5-5-5-5-5-5-5-5-5-5-5-5-0-0-0-0-0-0-0-0--|
a --5-5-5-5-5-5-5-5-5-5-5-5-5-5-5-5-5-5-5-5-5-5-5-5-0-0-0-0-0-0-0-0--|
d --5-5-5-5-5-5-5-5-5-5-5-5-5-5-5-5-5-5-5-5-5-5-5-5-0-0-0-0-0-0-0-0--|


Now play the Intro Riff twice whilst Matt is going

Now do the little mute fill


Now play the 2nd Intro riff twice

Fingertapping part (This is a weak guess at what Matt is doing, I'm not very
good at tabbing fingertapped solos, listen to the song to get the right pace
to play the solo at)
e -------------------------------------------------------------------------|
b --h.o-p.o-------h.o--p.o-------------------------------------------------|
g ---10--10---7----9----9---7---Repeat this over for about 6 bars----------|
d -------------------------------------------------------------------------|
a -------------------------------------------------------------------------|
d -------------------------------------------------------------------------|

Slow heavey part (Play twice)
e ---------------------------------------------------|
b ---------------------------------------------------|
g ---------------------------------------------------| x2
d --0---0-0-0---3---8-8-8-7--0---0-0-0---3---8-8-8-7-|
a --0---0-0-0---3---8-8-8-7--0---0-0-0---3---8-8-8-7-|
d --0---0-0-0---3---8-8-8-7--0---0-0-0---3---8-8-8-7-|

e -----------------------------------------------------|
b -----------------------------------------------------|
g -----------------------------------------------------| x2
d --7-7---------------------7-7------------------------|
a --7-7----7--8-7-8-8^---7-7----7--8-7-8-8^------------|
d --7-7---------------------7-7------------------------|

Powerful Vocals slow part
e -------------------------------------------------------------------------|
b -------------------------------------------------------------------------|
g -------------------------------------------------------------   ---------| x2
d 7-7-7-7-7-7-7-7-7-7-7-7-7-7-7-7-7-7-7-7-8-8-8-8-8-8-8-8-8-8-8-8-8-8-8-8--|
a 7-7-7-7-7-7-7-7-7-7-7-7-7-7-7-7-7-7-7-7-8-8-8-8-8-8-8-8-8-8-8-8-8-8-8-8--|
d 7-7-7-7-7-7-7-7-7-7-7-7-7-7-7-7-7-7-7-7-8-8-8-8-8-8-8-8-8-8-8-8-8-8-8-8--|

e -----------------------------------------------------------------------|
b -----------------------------------------------------------------------|
g -----------------------------------------------------------------------|
d --5-5-5-5-5-5-5-5-5-5-5-5-5-5-5-5-7-7-7-7-7-7-7-7-7let ring------7-7-7-|
a --5-5-5-5-5-5-5-5-5-5-5-5-5-5-5-5-7-7-7-7-7-7-7-7-7let ring------7-7-7-|
d --5-5-5-5-5-5-5-5-5-5-5-5-5-5-5-5-7-7-7-7-7-7-7-7-7let ring------7-7-7-|


Now play 2nd Intro part twice again with stomping bass drum


Now play the tremelo picked verse, but just the once this time


Now play the Ooooooooooooooooooooh Bridge twice again


Now play the intro riff twice


Now play the mute fill


And end on
e ------|
b ------|
g ------|
d --0--
a --0--
d --0--

this song fooking kicks
            

comments powered by Disqus
↑ Back to top | Muse Tabs for Debase Masons Grog. Lyrics for acoustic guitar and electric guitar. Tablatures and chords are parodies/interpretations of the original songs. You may use it for private study, scholarship, research or language learning purposes only