» » »

Dark Shines Bass tabs (ver.5)

Artists:  A B C D E F G H I J K L M N O P Q R S T U V W X Y Z # 

Dark Shines Bass tabs (ver.5)

Muse
Rating:
0/5 (0 votes)

Hard to play? Try these video lessons and learn fast.
                This tab corrects some of the mistakes in both tab 4 and 5, I believe it is the 
most correct tab for this song out there.

The song changes between clean, wahwah and distortion/fuzz. Listen to the song for 
the right effects.

verse 1

G|----------------|----------------|----------------|----------------| 
D|0-2-3---0--3----|--0-2-3---0--3--|-2h3p2-----2----|-2h3p2-----2----| 
A|------0--------0|--------0------0|-------4-0---4-0|-------4-0---4-4| 
E|----------------|----------------|----------------|----------------| 

G|----------------|----------------|----2------2----|----------------| 
D|5-------5------0|3-0-----3--0----|--2-------------|----------------| 
A|--5--------5----|----1-----------|0-------0-------|0-2-4-----0--4--| 
E|----6-3---------|------1--------1|------0--------0|------0---------| 


G|-------------|-------------|-------------|-------------|-------------|
D|-7-7-----7-7-|-7-7-----7-7-|-5-5-----3-3-|-2-2-----7---|-------------|
A|-------------|-------------|-------------|-----------0-|----------12\|
E|-------------|-------------|-------------|-------------|-------------| 

G|----------------|----------------|----------------|----------------| 
D|0-2-3---0--3----|--0-2-3---0--3--|-2h3p2-----2----|-2h3p2-----2----| 
A|------0--------0|--------0------0|-------4-0---4-0|-------4-0---4-4| 
E|----------------|----------------|----------------|----------------| 

G|----------------|----------------|----2------2----|----------------| 
D|5-------5------0|3-0-----3--0----|--2-------------|----------------| 
A|--5--------5----|----1-----------|0-------0-------|-00-5h7-00-/12\-| 
E|----6-3---------|------1--------1|------0---------|----------------| 
 


Chorus 
G|----------------|    |----------------|    |----------------|
D|-00-5h7-00-/12\-|    |----------------|    |----------------|
A|----------------|    |-00-5h7-00-/12\-|    |----3h5----/10\-|
E|----------------| x2 |----------------| x2 |-33-----33------|

G|----------------|    |----------------|
D|----------------|    |----------------|
A|----7h8---/13\--|    |-00-5h7-00-/12\-|
E|-66-----66------|    |----------------| x2


Verse 2, repeat verse 1

Chorus x2

Bridge

G|----------------|----------------|----------------|----------------|
D|5-------5-------|5-------5-------|0-2-3---0--3----|--0-2-3---0--3--|
A|--5--------5----|--5--------5----|------0--------0|--------0-------|
E|----6-3---------|----6-3---------|----------------|----------------|  x3

G|----------------|----------------|2-------2-------|2-------2-------| 
D|6-3-0---6---3---|6-3-0---6---3---|--2--------2----|--2--------2----| 
A|------2---------|------2---------|----4-0---------|----4-0---------| 
E|----------------|----------------|----------------|----------------|  

G|----------------|----------------|----------------|----------------| 
D|5---------------|5---------------|0-2-3---0--3----|0-2-3---0--3----| 
A|----------------|----------------|------0--------0|------0---------| 
E|--3-------------|--3-------------|----------------|----------------| x3

G|----------------|----------------|----------------|----------------| 
D|6-3-------------|6-3-------------|7---------------|----------------| 
A|----------------|----------------|----------------|----------------| 
E|----------------|----------------|----------------|----------------|

Chorus x2

Ending

G|-------------------------------------------|
D|-------------------------------------------|
A|-00-5h7-00-10h12-00-5h7-00-6h7-00-5h7-0-5~-|
E|-------------------------------------------| 
            
Hard to play? Try these video lessons and learn fast. | Correct




comments powered by Disqus
↑ Back to top | Tablatures and chords are parodies/interpretations of the original songs. You may use it for private study, scholarship, research or language learning purposes only