» » »

Muse, Dark Shines Tabs (ver.4)

Artists:  A B C D E F G H I J K L M N O P Q R S T U V W X Y Z # 

Dark Shines Tabs (ver.4)

Muse Tabs
 Rating:
4/5 (4 votes)
Dark Shines lessons Tabs too difficult? Try these video lessons and learn fast
                Muse-Darkshines

Intro:

e|---------------------------------------------------------------------9--|
B|-------------------------------------------------------6-------7-6---8--|
G|-------------------------------------------------------5---7-8-----8-9--|
D|-----------------7-5-----------------------7-5-7-8-7-5------------------|
A|-5-7-8----7-5--------8-787----7---7-------------------------------------|
E|----------------------------9---9---965---------------------------------|


Verse 1:

e|---------------------------------------------------------------------------------|
B|-----6----5----------------------------------------6-----------------------------|
G|------------7------6----3--------3----6----------7------6--------3-------3----6--|
D|---7-------------7----------5----6----7--------7------------7--------5---6----7--|
A|-5-------------7----------5------5----7-------------------7--------5-----5----7--|
E|---------------------------------------------------------------------------------|


Chorus:

e|----5----5----3----4----|
B|----5----7----5----6----|
G|----7----7----5----6----|
D|----7----6----3----4----|
A|----6----5----3----4----|
E|----5----5----3----4----|

Solo1:

e|------------------------------------------------------------------
B|------------------------------------------------------------------
G|------------------------------------------------------------------
D|-7--------7-5----------------7-5-------------------3-2------------
A|--------------8-7----8757--------8-7----87-5----45-----5-4--------
E|------------------------------------------------------------------


Verse 2:

e|---------------------------------------------------------------------------------|
B|-----6----5----------------------------------------6-----------------------------|
G|------------7------6----3--------3----6----------7------6--------3-------3----6--|
D|---7-------------7----------5----6----7--------7------------7--------5---6----7--|
A|-5-------------7----------5------5----7-------------------7--------5-----5----7--|
E|---------------------------------------------------------------------------------|

Chorus

Solo 2 :

e|----------------------------------
B|----------------------------------
G|---------------------------------- x2
D|-8--------8-7-5-------------------
A|-----------------8---5------------
E|------------------------5---5-4-5-

e|--------------------------------------------------|
B|--------------------------------------------------|
G|--------------------------------------------------|
D|s10--s11--s12----10----------------------7--------|
A|--------------------13-12----------5--8-----------|
E|-----------------------------4--7-----------------|


Solo 3: 

e|---------------------------------------------------------------------------------------
B|-----5---------------------------------------------------------------------------------
G|---7-------79----7-9--7------------9----s9-s9-7-9--7---------------------7-6-7-9-7-9-10
D|-7--------7----7--------7----7-6-7-------------------7------7-6-7-8----78--------------
A|----------------------------------------------------------57---------------------------
E|---------------------------------------------------------------------------------------

e|----12-13-12-13----------------12-13-12-13-------------------------------------
B|----------------14-13-14-12-13-------------14-13-14-12-13----13-13-11----------
G|----------------------------------------------------------------------13-12----
D|-------------------------------------------------------------------------------
A|-------------------------------------------------------------------------------
E|-------------------------------------------------------------------------------

e|--------------------|
B|--------------------|
G|77-9-10----9--------|
D|--------------------|
A|--------------------|
E|--------------------|
            
Submit corrections

comments powered by Disqus
↑ Back to top | Muse Tabs for Dark Shines. Lyrics for acoustic guitar and electric guitar. Tablatures and chords are parodies/interpretations of the original songs. You may use it for private study, scholarship, research or language learning purposes only