» » »

Muse, Darkshines Tabs (ver.2)

Artists:  A B C D E F G H I J K L M N O P Q R S T U V W X Y Z # 

Darkshines Tabs (ver.2)

Muse Tabs
 Rating:
4/5 (4 votes)
Darkshines lessons Tabs too difficult? Try these video lessons and learn fast
                "(1)

This is a great song of their Origin of Symmetry album

Chords:
         E a d g b e
Dm       x 5 7 7 6 5
A7       5 7 5 6 5 5
Gm       3 5 5 3 3 3
Bb       6 8 8 7 6 6
A7*      x 7 7 6 8 x

Tab Definition:

/ = slide
h = hammer
p = pull off
b = bend     (6b8 means you bend at the 6th fret to make
                   the sound of the 8th fret)
r = release bend
|  | = 1 bar

Intro:

e----------------------------------------------------------------|
b----------------------------------------------------------------|
g------------------------------------------------------------6b8-|
d-------------/-7-5-3-2h3p2---2----------------7-5-7-7b9r7-5-----|
a-5-7-8-7-5--4/-------------4---4-1h4p1-1p0----------------------|
E-------------------------------------------2/-------------------|

e-------------------|
b-------------14b16-|
g-7h9h10-9-7--12b14-| use tremelo bar to get full effect here
d-------------------|
a-------------------|
E-------------------|

Verse: ( I think its different in the second verse but im not sure about it
	 But this is definitely right for the first verse)

e-----3-----1h3p1-0---------------1---0------|
b---3-------------------2--3------0---2------|
g-2-------------------0--------3--1---0------|
d----------------------------0----0---2------|
a-------------------------------------0------|
E--------------------------------------------|

e-----3---1---0--------------1---0------|
b---3-----3-------2--3-------0---2------|
g-2-------2-----0--------3---1---0------|      then,   | A7 |
d---------0------------0-----0---2------|
a--------------------------------0------|
E---------------------------------------|

Chorus:

| Dm | Dm | A7 | A7 | Gm | Bb | A7* | A7* |

First Solo:

e--------------------------------------------------------|
b-10---10-8-6-5-6p5---5--10-8-6-5-6p5----3h5h6-5-3-2-----|
g-------------------7-----------------7------------------|
d--------------------------------------------------------|
a--------------------------------------------------------|
E--------------------------------------------------------|

Then play the verse again, and the chorus twice followed by this:

Solo 2:

e-----------------------------------------------------------------------------|
b-11---11-10-8-6-------------11---11-10-8-6-------------13--14--15-13p11-10---|
g----------------7--------------------------7---------------------------------|
d------------------7--7-6-7-------------------7--7-6-7------------------------|
a-----------------------------------------------------------------------------|
E-----------------------------------------------------------------------------|

e-------------------------------------------------------------------------------------|
b--------------10---------5-----------------------------------------------------------|
g----4--7--10-----------7----9b11r9-7-9b11r9-7---------9-9b11r9-7-9b11r9-7------------|
d-6-------------------8------------------------7-7-6-7---------------------7----------|
a----------------------------------------------------------------------------7h8-10---|
E-------------------------------------------------------------------------------------|

e---------------------------------------------------------------------------------------|
b--------------------------------14/15/14-11-14-11/10--10/11-14/15/14-11-14-11/10-------|
g--------------------13----13-14--------------------------------------------------------|
d-7-8-11h12-12h14-15----15--------------------------------------------------------------|
a---------------------------------------------------------------------------------------|
E---------------------------------------------------------------------------------------|

e---------------------------------|
b-10/8-8-6-5-3----3h5h6p5-3-3-----|
g---------------------------------|
d---------------------------------|
a---------------------------------|
E---------------------------------|

Ending:

| Dm | Dm | A7 | A7 | Gm | Bb | A7* | A7*| x2

then,

| A7 | A7 |  Finish on Dm
"            
Submit corrections

comments powered by Disqus
↑ Back to top | Muse Tabs for Darkshines. Lyrics for acoustic guitar and electric guitar. Tablatures and chords are parodies/interpretations of the original songs. You may use it for private study, scholarship, research or language learning purposes only