» » »

Muse, Coma Bass tabs (ver.1)

Artists:  A B C D E F G H I J K L M N O P Q R S T U V W X Y Z # 

Coma Bass tabs (ver.1)

Muse Tabs
Rating:
0/5 (0 votes)
Hard to play? Try these video lessons and learn fast.
                ----------------------------------------------------------------------------
                                  Muse – Coma
----------------------------------------------------------------------------

Tuning: Standard (EADG)

     W                   E  E  E  E  E  E  E  E     W
G||-------------------|--4--4-----4-----------4--|-------------------|
D||-------------------|--------6-----6--5--5-----|-------------------|
A||-------------------|--------------------------|-------------------|
D||-------------------|--------------------------|-------------------|


  E  E  E  E   E  E  E  E     Q    E  S E  E  S E  E
---------------------------|--------------------------|
---------------------------|--0----0--0-0--0----------|
---------------------------|--------------------------|
--6--6--6--6S--5--5--5--5--|------------------5-5--5--|


  E  E  E  E  E  E  E  E     Q    E  S E  E  S E  E
--4--4-----4-----------4--|--------------------------|
--------6-----6--5--5-----|--0----0--0-0--0----------|
--------------------------|--------------------------|
--------------------------|------------------5-5--5--|


  E  E  E  E   E  E  E  E     Q    E  S E  E  S E  E
---------------------------|--------------------------|
---------------------------|--0----0--0-0--0----------|
---------------------------|--------------------------|
--6--6--6--6S--5--5--5--5--|------------------5-5--5--|


  E  E  E  E  E  E  E  E     Q    E  S E  E  S E  E
--4--4-----4-----------4--|--------------------------|
--------6-----6--5--5-----|--0----0--0-0--0----------|
--------------------------|--------------------------|
--------------------------|------------------5-5--5--|


  E  E  E  E   E  E  E  E     W                   W
---------------------------|-------------------|-------------------|
---------------------------|-------------------|-------------------|
---------------------------|-------------------|-------------------|
--6--6--6--6S--5--5--5--5--|--L----------------|--L----------------|


  S S S S S S S S S S S S S S S S    S S S S S S S S H
----------------------------------|---------------------------|
----------------------------------|---------------------------|
--5-5-5-5-5-5-5-5-5-5-5-5-5-5-5-5-|--5-5-5-5-5-5-5-5-5--------|
----------------------------------|---------------------------|


  S S S S  Q    S S S S  Q       S S S S  Q    S S S S  Q
------------------------------|-------------------------------|
------------------------------|-------------------------------|
--5-5-5-L-17----2-2-2-L-14----|--1-1-1-L-13----1-1-1-L-13S----|
------------------------------|-------------------------------|


  S S S S  Q    S S S S  Q       S S S S  Q    S S S S  Q
------------------------------|-------------------------------|
------------------------------|-------------------------------|
--5-5-5-L-17----2-2-2-L-14----|--1-1-1-L-13----1-1-1-L-13S----|
------------------------------|-------------------------------|


  S S S S  Q    S S S S  Q       S S S S  Q    S S S S  Q
------------------------------|-------------------------------|
------------------------------|-------------------------------|
--5-5-5-L-17----2-2-2-L-14----|--1-1-1-L-13----1-1-1-L-13S----|
------------------------------|-------------------------------|


  S S S S  Q    S S S S  Q       S S S S  Q    S S S S  Q
------------------------------|-------------------------------|
------------------------------|-------------------------------|
--5-5-5-L-17----2-2-2-L-14----|--1-1-1-L-13----1-1-1-L-13S----|
------------------------------|-------------------------------|


                                           |--3--|
  Q    E  E  Q    E  E     Q    E  E  Q    E  E  E     Q    E  E  Q    E  E
------------------------|---------------------------|----------------------|
------------------------|---------------------------|----------------------|
------------------------|---------------------------|----------------------|
--5----5--5--0----0--0--|--4----4--4--9----9--8--7--|--5----5--5--0----0--0|


                  |--3--|                            
  Q    E  E  Q    E  E  E     Q    E  E  Q    E  E
---------------------------|------------------------|
---------------------------|------------------------|
---------------------------|------------------------|
--4----4--4--9----9--8--7--|--5----5--5--0----0--0--|


                  |--3--|                                           
  Q    E  E  Q    E  E  E     W                   W
---------------------------|-------------------|-------------------|
---------------------------|-------------------|-------------------|
---------------------------|-------------------|--0----------------|
--4----4--4--9----9--8--7--|--5----------------|-------------------|


  Q    E  S E  E  S E  E     E  E  E  E  E  E  E  E
--------------------------|--4--4-----4-----------4--|
--0----0--0-0--0----------|--------6-----6--5--5-----|
--------------------------|--------------------------|
------------------5-5--5--|--------------------------|


  Q    E  S E  E  S E  E     E  E  E  E   E  E  E  E
--------------------------|---------------------------|
--0----0--0-0--0----------|---------------------------|
--------------------------|---------------------------|
------------------5-5--5--|--6--6--6--6S--5--5--5--5--|


  Q    E  S E  E  S E  E     E  E  E  E  E  E  E  E
--------------------------|--4--4-----4-----------4--|
--0----0--0-0--0----------|--------6-----6--5--5-----|
--------------------------|--------------------------|
------------------5-5--5--|--------------------------|


  Q    E  S E  E  S E  E     E  E  E  E   E  E  E  E     W
--------------------------|---------------------------|-------------------|
--0----0--0-0--0----------|---------------------------|-------------------|
--------------------------|---------------------------|-------------------|
------------------5-5--5--|--6--6--6--6S--5--5--5--5--|--L----------------|


  W                   S S S S S S S S S S S S S S S S
-------------------|----------------------------------|
-------------------|----------------------------------|
-------------------|--5-5-5-5-5-5-5-5-5-5-5-5-5-5-5-5-|
--L----------------|----------------------------------|


  S S S S S S S S H           S S S S  Q    S S S S  Q
---------------------------|------------------------------|
---------------------------|------------------------------|
--5-5-5-5-5-5-5-5-5--------|--5-5-5-L-17----2-2-2-L-14----|
---------------------------|------------------------------|


  S S S S  Q    S S S S  Q        S S S S  Q    S S S S  Q
-------------------------------|------------------------------|
-------------------------------|------------------------------|
--1-1-1-L-13----1-1-1-L-13S----|--5-5-5-L-17----2-2-2-L-14----|
-------------------------------|------------------------------|


  S S S S  Q    S S S S  Q        S S S S  Q    S S S S  Q
-------------------------------|------------------------------|
-------------------------------|------------------------------|
--1-1-1-L-13----1-1-1-L-13S----|--5-5-5-L-17----2-2-2-L-14----|
-------------------------------|------------------------------|


  S S S S  Q    S S S S  Q        S S S S  Q    S S S S  Q
-------------------------------|------------------------------|
-------------------------------|------------------------------|
--1-1-1-L-13----1-1-1-L-13S----|--5-5-5-L-17----2-2-2-L-14----|
-------------------------------|------------------------------|


  S S S S  Q    S S S S  Q        Q    E  E  Q    E  E
-------------------------------|------------------------|
-------------------------------|------------------------|
--1-1-1-L-13----1-1-1-L-13S----|------------------------|
-------------------------------|--5----5--5--0----0--0--|


                  |--3--|                            
  Q    E  E  Q    E  E  E     Q    E  E  Q    E  E
---------------------------|------------------------|
---------------------------|------------------------|
---------------------------|------------------------|
--4----4--4--9----9--8--7--|--5----5--5--0----0--0--|


                  |--3--|                            
  Q    E  E  Q    E  E  E     Q    E  E  Q    E  E
---------------------------|------------------------|
---------------------------|------------------------|
---------------------------|------------------------|
--4----4--4--9----9--8--7--|--5----5--5--0----0--0--|


                  |--3--|                                           
  Q    E  E  Q    E  E  E     W                   W
---------------------------|-------------------|-------------------|
---------------------------|-------------------|-------------------|
---------------------------|-------------------|--0----------------|
--4----4--4--9----9--8--7--|--5----------------|-------------------|


  Q    E  S E  E  S E  E     E  E  E  E  E  E  E  E
--------------------------|--4--4-----4-----------4--|
--0----0--0-0--0----------|--------6-----6--5--5-----|
--------------------------|--------------------------|
------------------5-5--5--|--------------------------|


  Q    E  S E  E  S E  E     E  E  E  E   E  E  E  E
--------------------------|---------------------------|
--0----0--0-0--0----------|---------------------------|
--------------------------|---------------------------|
------------------5-5--5--|--6--6--6--6S--5--5--5--5--|


  Q    E  S E  E  S E  E     E  E  E  E  E  E  E  E
--------------------------|--4--4-----4-----------4--|
--0----0--0-0--0----------|--------6-----6--5--5-----|
--------------------------|--------------------------|
------------------5-5--5--|--------------------------|


  Q    E  S E  E  S E  E     E  E  E  E   E  E  E  E
--------------------------|---------------------------|
--0----0--0-0--0----------|---------------------------|
--------------------------|---------------------------|
------------------5-5--5--|--6--6--6--6S--5--5--5--5--|


                                                                   |--3--|
  Q    E  S E  E  S E  E   E  Q   E  Q    E  E     Q    E  E  Q    E  E  E
-------------------------|----------------------|--------------------------|
--0----0--0-0--0---------|----------------------|--------------------------|
-------------------------|----------------------|--------------------------|
------------------5-5--5-|-5--5---5--0----0--0--|--4----4--4--9----9--8--7-|


                                           |--3--|
  Q    E  E  Q    E  E     Q    E  E  Q    E  E  E     Q    E  E  Q    E  E
------------------------|---------------------------|----------------------|
------------------------|---------------------------|----------------------|
------------------------|---------------------------|----------------------|
--5----5--5--0----0--0--|--4----4--4--9----9--8--7--|--5----5--5--0----0--0|


                  |--3--|                                           
  Q    E  E  Q    E  E  E     W                   W
---------------------------|-------------------|-------------------|
---------------------------|-------------------|-------------------|
---------------------------|-------------------|--0----------------|
--4----4--4--9----9--8--7--|--5----------------|-------------------|


  Q    E  Q    E  S S E     E  H        Q    E     W
-------------------------|----------------------|-------------------||
--0-------0-------0-2-0--|--L--0--------L----L--|-------------------||
-------------------------|----------------------|-------------------||
-------------------------|----------------------|-------------------||



Duration Legend
---------------
W - whole
H - half
Q - quarter
E - 8th
S - 16th
T - 32nd
X - 64th
. - note dotted
|-n-|  - n-tuplets


Tablature Legend
----------------
L - tied note
x - dead note
g - grace note
(n) - ghost note
> - accentuded note
NH - natural harmonic
AH - artificial harmonic
TH - tapped harmonic
SH - semi harmonic
PH - pitch harmonic
h - hammer on
p - pull off
b - bend
br - bendRelease
pb - preBend
pbr - preBendRelease
brb - bendReleaseBend
\n/ - tremolo bar dip
\n - tremolo bar dive
-/n - tremolo bar Release up
/n\ - tremolo bar inverted dip
/n - tremolo bar return
-\n - tremolo bar Release down
S - shift slide
s - legato slide
/ -  slide into from below or out of upwards
\ -  slide into from above or out of downwards
~ - vibrato
W - wide vibrato
tr - trill
TP - tremolo picking
T - tapping
S - slap
P - pop
< - fade in
^ - brush up
v - brush down
----------------------------------------------------------------------------
            

comments powered by Disqus
↑ Back to top | Muse Bass for Coma. Lyrics for acoustic guitar and electric guitar. Tablatures and chords are parodies/interpretations of the original songs. You may use it for private study, scholarship, research or language learning purposes only