» » »

Muse, Coma Tabs (ver.1)

Artists:  A B C D E F G H I J K L M N O P Q R S T U V W X Y Z # 

Coma Tabs (ver.1)

Muse Tabs
Rating:
0/5 (0 votes)
Coma lessons Tabs too difficult? Try these video lessons and learn fast
                This is a B-Side but still a bloody good song. Enjoy
"main riff"
E----2------------------------------------------------------------------------------------------
B----3---3---5---3---5---5^-5^ -5-3-------3-----------------------3------------
G----2--------------------------------4--------4-----3---3---3-----------3-------
D-------------------------------------------------------------------------------------------------
A-------------------------------------------------------------------------------------------------
D-------------------------------------------------------------------------------------------------

"BRIDGE"  (play  v.fast)
E---------------------------------------------------------------------------------------------------------------------------------------------------------------------------
B-------------------3---3------------3---3-------------3---3-------------3---3------------3---3-------------3---3-------------2---2-------------2---2---
G---------2---2------------2---2-------------1---1-------------1---1--------------0---0------------0---0--------------0---0-------------0---0-------------
D---------------------------------------------------------------------------------------------------------------------------------------------------------------------------
A---------------------------------------------------------------------------------------------------------------------------------------------------------------------------
D---------------------------------------------------------------------------------------------------------------------------------------------------------------------------

"verse"
E------------2-----2-----2-----2-----2-----2-----2--2--2--2-------------------------
B------------3-----3-----3-----3-----3-----3-----2--2--2--2-------------------------
G------------2-----2-----2-----2-----2-----2-----2--2--2--2-------------------------
D------------------------------------------------------------------------------------------------
A------------------------------------------------------------------------------------------------
D------------------------------------------------------------------------------------------------

"chorus"
E------------3------3------2---2--------2-----2---------2----------------
B--------------------------3---3--------2-----2---------3----------------
G--------------------------2---2--------3-----3---------4-----------------
D---------------------------------------4-----4---------4----------------
A------------2------2-------------------4-----4---------2----------------
D------------3------3-------------------2-----2---------2---------------


"bridge2"
E--------------3-----3-----3-----3---------------------------------------------------------------------
B-------------------------------------------2-----2-----2-----2----------------------------------------
G-------------------------------------------2-----2-----2-----2----------------------------------------
D-------------------------------------------2-----2-----2-----2----------------------------------------
A--------------2-----2-----2-----2---------------------------------------------------------------------
D--------------3-----3-----3-----3---------------------------------------------------------------------

ORDER:

"main riff"    x6
"BRIDGE"     x2
"verse"         x4
"chorus"       x3
"bridge2"     x1
"main riff"    x4
"BRIDGE"     x2
"verse"         x4
"chorus"       x3
"bridge2"     x1
"main riff"    x4
"chorus"       x3
"bridge2" + fade to end    x1
            
Submit corrections

comments powered by Disqus
↑ Back to top | Muse Tabs for Coma. Lyrics for acoustic guitar and electric guitar. Tablatures and chords are parodies/interpretations of the original songs. You may use it for private study, scholarship, research or language learning purposes only