» » »

Cave Bass tabs (ver.5)

Artists:  A B C D E F G H I J K L M N O P Q R S T U V W X Y Z # 

Cave Bass tabs (ver.5)

Muse
Rating:
0/5 (0 votes)

Hard to play? Try these video lessons and learn fast.
                Artist - Muse	
Track - Cave
Album - Showbiz

I'm not 100% sure about this tab, but it is a start. To help you 
learn what each part sounds like, I have put the time that it is 
first heard on the track. Have fun!

Part 1 (0:16)
G--------------------------------------------
D-0-0-0-0-0x-0-0-0-0-0x-0-0-0-0-0x-0-0-0-0-0-
A--------------------------------------------
E--------------------------------------------

Part 2 (0:22. This is used throughout at random parts)
G-5h7-7-7-5h7-7-7
D----------------
A----------------
E----------------

Part 3 (0:24. The main verse riff)
G----------------------
D-0-0-0-0-3-0----------
A-------------0-2-3-5*-
E----------------------

*-This is one of the parts I'm not sure about

Part 4 (0:47)
G-------------------------------------------------------
D----------------------------5-5x-5-3-3x-3-2-2x-2-1-1x-1
A-------0-0x-0-1-1x-1-3-3x-3----------------------------
E-3-3x-3------------------------------------------------

Part 5 (1:19chorus part. Again, I am not completely sure of this 
bit)
G-------------
D-0-----------
A---3-1-0-3-1-
E-------------

Well, that is the tab. I hope it helps you! If you spot any 
errors, mail me! Sarah :)
            
Hard to play? Try these video lessons and learn fast. | Correct




comments powered by Disqus
↑ Back to top | Tablatures and chords are parodies/interpretations of the original songs. You may use it for private study, scholarship, research or language learning purposes only