» » »

Can T Take My Eyes Of You Bass tabs (ver.1)

Artists:  A B C D E F G H I J K L M N O P Q R S T U V W X Y Z # 

Can T Take My Eyes Of You Bass tabs (ver.1)

Muse
Rating:
0/5 (0 votes)
Tabs too difficult? Try these video lessons and learn fast.
                (1)
Intro
G|---------------------|
D|---------------------|
A|--3--3-3--3--3--3-3--|         x2
E|---------------------|

Verse
G|---------------------|---------------------|
D|---------------------|---------------------|
A|--3--3-3--3--3--3-3--|--0--3-3--3--3--3-3--|
E|---------------------|---------------------|

G|---------------------|---------------------|
D|---------------------|--0--3-3--3--3--3-3--|
A|--0--3-3--3--3--3-3--|---------------------|
E|---------------------|---------------------|

G|---------------------|---------------------|
D|--0--3-3--3--3--3-3--|---------------------|
A|---------------------|--0--3-3--3--3--3-3--|
E|---------------------|---------------------|

G|---------------------|---------------------|
D|---------------------|---------------------|
A|--0--3-3--3--3--3-3--|--0--3-3--3--3--3-3--|
E|---------------------|---------------------|                         x2

Pre-Chorus
G|------------------|-----------------|
D|------------------|-----------------|
A|--5-5-5-5-5-5-5-5-|-----------------|
E|------------------|-3-3-3-3-3-3-3-3-|

G|------------------|-----------------|
D|------------------|-----------------|
A|--3-3-3-3-3-3-3-3-|-3-3-3-3-3-3-3-3-|
E|------------------|-----------------|

G|------------------|-----------------|
D|------------------|-----------------|
A|--5-5-5-5-5-5-5-5-|-----------------|
E|------------------|-3-3-3-3-3-3-3-3-|

G|------------------|-----------------|
D|------------------|-7-7-7-7-7-7-7-7-|
A|--3-3-3-3-3-3-3-3-|-----------------|
E|------------------|-----------------| 

Chorus
G|------------------|-----------------|
D|------------------|-----------------|
A|--5-5-5-5-5-5-5-5-|-----------------|
E|------------------|-3-3-3-3-3-3-3-3-|

G|------------------|-----------------|
D|------------------|-----------------|
A|--3-3-3-3-3-3-3-3-|-----------------|
E|------------------|-5-5-5-5-5-5-5-5-|

G|------------------|-----------------|
D|------------------|-----------------|
A|--5-5-5-5-5-5-5-5-|-----------------|
E|------------------|-3-3-3-3-3-3-3-3-|

G|------------------|-----------------|
D|------------------|-7-7-7-7-7-7-7-7-|
A|--3-3-3-3-3-3-3-3-|-----------------|
E|------------------|-----------------|                          x2

Outro
G|---------------------|
D|---------------------|
A|--0--3-3--3--3--3-3--|
E|---------------------|                  x4
            
Tabs too difficult? Try these video lessons and learn fast.


comments powered by Disqus
↑ Back to top | Tablatures and chords are parodies/interpretations of the original songs. You may use it for private study, scholarship, research or language learning purposes only