» » »

Can T Take My Eyes Of You Bass tabs (ver.2)

Artists:  A B C D E F G H I J K L M N O P Q R S T U V W X Y Z # 

Can T Take My Eyes Of You Bass tabs (ver.2)

Muse
Rating:
0/5 (0 votes)

Hard to play? Try these video lessons and learn fast.
                
Hello..i hope this is the best bass tab that you can find... i'm 99% sure...so start 
this song....hope you can find the timing on your own...sorry...
Tuning:EADG
 Intro
G|-------------------------------------------------------------------------------|
D|-------------------------------------------------------------------------------|
A|--3-33--3-3-33----3-33-3-3-33--------------------------------------------------|
E|-----------------3-------------------------------------------------------------|
 Verse
G|---------------------------------------------------------------------------|
D|------------------------------------------------3-33-3-3-33----3-33-3-3-33-|
A|---3-33-3-3-33----3-33-3-3-33----3-33-3-3-33---3--------------3------------|
E|--3--------------3--------------3------------------------------------------|

G|---------------------------------------------------------------------------|
D|---------------------------------------------------------------------------|
A|---3-33-3-3-33----3-33-3-3-33-----3-33-3-3-33------------------------------|
E|--3--------------3---------------3-----------------------------------------|
 Bridge
G|---------------------------------------------------------------------------|
D|---------------------------------------------------------------------------|
A|--55555555----------------------------55555555-----------------------------|
E|-----------33333333-3/888888888888888----------33333333-3/8888888----------|

G|---------------------------------------------------------------------------|
D|---------------------------------------------------------------------------|
A|--8/5555555555555555-------------------------------------------------------|
E|---------------------------------------------------------------------------|
 Chorus
G|---------------------------------------------------------------------------|
D|---------------------------------------------------------------------------|
A|--55555555----------77777777----------55555555----------33333333-----------|
E|-----------33333333----------55555555----------33333333----------55555555--|

G|---------------------------------------------------------------------------|
D|---------------------------------------------------------------------------|
A|--55555555----------77777777---------5-5-5-5-5-5---------------------------|
E|-----------33333333----------5555555-------------3~------------------------|
 Outro
G|---------------------------------------------------------------------------|
D|---------------------------------------------------------------------------|
A|---3-33-3-3-33--3-33-3-3-33--3-33-3-3-33--3-33-3-3-33----6~----------------|
E|--3------------3------------3------------3------------3~-------------------|

| /  slide up
| \  slide down
| h  hammer-on
| p  pull-off
| ~  vibrato
| +  harmonic
| x  Mute note
===============================================================================
            
Hard to play? Try these video lessons and learn fast. | Correct




comments powered by Disqus
↑ Back to top | Tablatures and chords are parodies/interpretations of the original songs. You may use it for private study, scholarship, research or language learning purposes only