>
 >
Can Take My Eyes Off You

Can Take My Eyes Off You Guitar Tabs

Muse - Can	 Take My Eyes Off You chords, tabs, tablatures, lyrics

Guitar lessons | Add/correct | Request | Top 50 tabs Artists:  A B C D E F G H I J K L M N O P Q R S T U V W X Y Z 0-9

Can Take My Eyes Off You Guitar Tabs – Muse

CD, Sheet music, Poster

Do you like Can Take My Eyes Off You? Share with your friends now
Tabs
Intro
E-----------0---
B-----------12--
G-9---------9---          bend the notes with
D-10--------10--          whammy bar
A-10--------10--
E---------------


E-------------------------------------
B-------------------5-----------------
G-------------------5-----------------
D-------------------5-----------------
A-------------------3-----------------
E-------------------------------------
  you're just too good to be true

E-----------------------------------
B-------------------5---------------
G-------------------4---------------
D-------------------5---------------
A-------------------3---------------
E-----------------------------------
      can't keep my eyes off you


E----------------3-------------------
B----------------5-------------------
G----------------3-------------------
D----------------5-------------------
A----------------3-------------------
E-------------------------------------
   you feel like heaven to touch

E-----------------------------------
B-----------------------------------
G----------2------------------------
D----------3------------------------
A----------3------------------------
E----------1------------------------
i wanna hold you so much


E-------------------------------------
B-------------------------------------
G-----------------1-------------------
D-----------------3-------------------
A-----------------3-------------------
E-----------------1-------------------
     at long lost love has arrived

E----------------3--------------
B----------------5--------------
G----------------5--------------
D----------------5--------------
A----------------3--------------
E--------------------------------
     and i thank god i'm alive

E---------------------------------------
B---------------------------------------
G-------------------2-----------1---------
D-------------------3-----------3---------
A-------------------3-----------3---------
E-------------------1-----------1---------
 you're just too good to be true  can't take my eyes off you

E-x-x-x--x-x-x--x-x-x-x--
B-x-x-x--x-x-x--x-x-x-x--
G-x-x-x--x-x-x--x-x-x-x--
D-x-x-x--x-x-x--x-x-x-x--
A-x-x-x--x-x-x--x-x-x-x--
E-x-x-x--x-x-x--x-x-x-x--



E-----------------------
B---------------1-0-----
G-1-2--1-2--1-2------2--
D----------------------- X 3
A-----------------------
E-----------------------

E--------------------------
B--------------------------
G-1-2--1-2--2-2-222222222--
D--------------------------
A--------------------------
E--------------------------
Chorus

I love you
   
   Dm                 G
E-5-------------------3--------------------------------
B-6-------------------3--------------------------------
G-7-------------------4--------------------------------
D-7-------------------5--------------------------------
A-5-------------------5--------------------------------
E---------------------3--------------------------------
    baby and if it's quite alright i need you

 C                      A
E-3----------------------5------------------------------
B-5----------------------5------------------------------
G-5----------------------6------------------------------
D-5----------------------7------------------------------
A-3----------------------7------------------------------
E------------------------5------------------------------
   baby to cure my lonely heart i want you

   Dm  G                        C         A
E-5-----3------------------3----------5--
B-6-----3------------------5----------5--
G-7-----4------------------5----------6--
D-7-----5------------------5----------7--
A-5-----5------------------3----------7--
E-------3-----------------------------5--
   baby trust in me when i say 

   Dm
Oh  pretty  baby

                     G
don't bring me down i pray

             C
oh pretty baby

                  A
now that i've found this day

                Dm
Oh let me love you baby 

          G
let me love you

Ending

E-0-------0------------0---------0--------------
B-12------11---13slide-10--------9----------8---
G-9-------9------------9---------9----------9---
D-10------10-----------10--------10---------10--
A-----------------------------------------------
E-----------------------------------------------





Comments


Popular Muse tabs & chords
Futurism 4 Bass Tabs
Minimum Bass Tabs
I Belong To You 2 Chords
Burning Bridges Tabs
Cant Take My Eyes Off You 2 Tabs
Con-science 2 Tabs
Hysteria 6 Tabs
New Born 2 Tabs
Plug In Baby Main Riff Tabs
Tsp 1 Tabs


Song lyrics



↑ Back to top | Tablatures and chords are parodies/interpretations of the original songs. You may use it for private study, scholarship, research or language learning purposes only
© 2014 AZChords.com Contact us | Privacy policy | DMCA | Add/correct tabs | Request tabs | Top 50 tabs