» » »

Muse, Butterflies And Hurricanes Bass tabs (ver.4)

Artists:  A B C D E F G H I J K L M N O P Q R S T U V W X Y Z # 

Butterflies And Hurricanes Bass tabs (ver.4)

Muse Tabs
 Rating:
4/5 (4 votes)
Butterflies And Hurricanes lessons Tabs too difficult? Try these video lessons and learn fast
                Muse - Butteflies And Hurricanes

Due to the fast nature of the notes being played,
what you see is only a rough guidline.
This means you need to listen to the song get the rhythym and speed.
Shouldn't be hard as the bass is quite prominent.

Intro(tapped)-
G---------------------------------------------|
D---12-12---12-12---12---12-12---12---12-12---|
A-5-------5-------5----5-------5----5---------|
E---------------------------------------------|

G--------------------------------|
D--------------------------------|
A-5-4-3-2-1-0--------------------|
E-------------4ring-0ring 5ring--|

G---------------------------------------------------------|
D---------------------------------------------------------|
A-5-5-5-5-5-5-5-5-5-5-5-5-5-5-5-5-5-5-5-5-5-5-5-5-5-5-5-5-|
E---------------------------------------------------------|

G---------------------------------------------------------|
D---------------------------------------------------------|
A-17-17-17-16-16-16-15-15-15-14-14-14-13-13-12-12---------|
E---------------------------------------------------------|

G---------------------------------------------------------|
D---------------------------------------------------------|
A-11-11-11-11-11-11-11-7-7-7-7-7-7-7-7-12-12-12-12-12-12--|
E---------------------------------------------------------|

Chorus
G------------------------------------|
D------------------------------------|
A-------------------5-5-5-5-5-5-5-5--|x2
E-6-6-6-6-6-6-6-6-6------------------|

G----------------------------------------------------|
D----------------------------------------------------|
A-------------------8-8-8-8-8-8-8-8-9-9-9-9-9-9-9-9--|
E-6-6-6-6-6-6-6-6-6----------------------------------|

G--------------------------|
D--------------------------|
A-10-10-10-10-10-10-10-10--|
E--------------------------|

G----------------------------------|   -------|
D----------------------------------|   -------|
A-----------------8-8-8-8-8-8-8-8--|x2 -------|
E-6-6-6-6-6-6-6-6------------------|   -5ring-|

G-----------------------------|
D-----------------------------|
A---7-4------------7-4--------|
E-5-----6-3-6----5-----6-3-6--|

Verse-
G---------------------------------------------------------|
D---------------------------------------------------------|
A-5-5-5-5-5-5-5-5-5-5-5-5-5-5-5-5-5-5-5-5-5-5-5-5-5-5-5-5-|
E---------------------------------------------------------|

G---------------------------------------------------------|
D---------------------------------------------------------|
A-17-17-17-16-16-16-15-15-15-14-14-14-13-13-12-12---------|
E---------------------------------------------------------|

G---------------------------------------------------------|
D---------------------------------------------------------|
A-11-11-11-11-11-11-11-7-7-7-7-7-7-7-7-12-12-12-12-12-12--|
E---------------------------------------------------------|

G------------------------------------------------|
D------------------------------------------------|
A-5-5-5-5-5-5-5-5-4-4-4-4-4-4-4-4-3-3-3-3-3-3-3--|
E------------------------------------------------|

G------------------------------------------------|
D------------------------------------------------|
A-2-2-2-2-2-2-2-2-1-1-1-1-1-1-1-1-0-0-0-0-0-0-0--|
E------------------------------------------------|

G---------------------------------------------------------|
D---------------------------------------------------------|
A-11-11-11-11-11-11-11-7-7-7-7-7-7-7-7-12-12-12-12-12-12--|
E---------------------------------------------------------|

Chorus-
G------------------------------------|
D------------------------------------|
A-------------------5-5-5-5-5-5-5-5--|x2
E-6-6-6-6-6-6-6-6-6------------------|

G----------------------------------------------------|
D----------------------------------------------------|
A-------------------8-8-8-8-8-8-8-8-9-9-9-9-9-9-9-9--|
E-6-6-6-6-6-6-6-6-6----------------------------------|

G--------------------------|
D--------------------------|
A-10-10-10-10-10-10-10-10--|
E--------------------------|

G----------------------------------|   -------|
D----------------------------------|   -------|
A-----------------8-8-8-8-8-8-8-8--|x2 -------|
E-6-6-6-6-6-6-6-6------------------|   -5ring-|

G-----------------------------|
D-----------------------------|
A---7-4------------7-4--------|
E-5-----6-3-6----5-----6-3-6--|

Piano Interlude-
G---------------------------------------------------------|
D---------------------------------------------------------|
A-5-5-5-5-5-5-5-5-5-5-5-5-5-5-5-5-5-5-5-5-5-5-5-5-5ring---|
E---------------------------------------------------------|

Then Just piano!

After piano Interlude you can play the intro again if you wish or just wait!

Chorus-
G------------------------------------|
D------------------------------------|
A-------------------5-5-5-5-5-5-5-5--|x2
E-6-6-6-6-6-6-6-6-6------------------|

G----------------------------------------------------|
D----------------------------------------------------|
A-------------------8-8-8-8-8-8-8-8-9-9-9-9-9-9-9-9--|
E-6-6-6-6-6-6-6-6-6----------------------------------|

G--------------------------|
D--------------------------|
A-10-10-10-10-10-10-10-10--|
E--------------------------|

G----------------------------------|  
D----------------------------------|   
A-----------------8-8-8-8-8-8-8-8--|x2 
E-6-6-6-6-6-6-6-6------------------|   

G-----------------|
D-----------------|
A-----------------|
E-5-5-5-5-5-5-5-5-|

G-----------------------------|
D-----------------------------|
A---7-4------------7-4--------|
E-5-----6-3-6----5-----6-3-6--|

G-----|
D-----|
A-----|
E-10\-|

Fin!
            
Submit corrections

comments powered by Disqus
↑ Back to top | Muse Bass for Butterflies And Hurricanes. Lyrics for acoustic guitar and electric guitar. Tablatures and chords are parodies/interpretations of the original songs. You may use it for private study, scholarship, research or language learning purposes only