>
 >
Butterfiles And Hurricanes Live

Butterfiles And Hurricanes Live Guitar Tabs

Muse - Butterfiles And Hurricanes Live chords, tabs, tablatures, lyrics

Guitar lessons | Add/correct | Request | Top 50 tabs Artists:  A B C D E F G H I J K L M N O P Q R S T U V W X Y Z 0-9

Butterfiles And Hurricanes Live Guitar Tabs – Muse

CD, Sheet music, Poster

Do you like Butterfiles And Hurricanes Live? Share with your friends now
Tabs
Band:    Muse
DVD:     Absolution Tour

Ok this is a class song live, my band decided to try to cover it and have 
actually done a good job of it if i do say so myself lol. Anyways the rythem
of the verse's is a constant stumming pattarn. Listin to the DVD to you'll 
understand. I no the solo's a bit ifly, so please comment an help me out!
Enjoy an please Rate!

Ledgend
/ = Slide up
\ = Slide down
x = Mute
b = Bend
Tp= Tremblo Picking

      fx/Phaser

e|---1--1--1--1--1--1--1--1--1--1--1--1---|
B|---3--3--3--3--3--3--3--3--3--3--3--3---|
G|---2--2--2--2--2--2--2--2--2--2--2--2---|
D|---0--0--0--0--0--0--0--0--0--0--0--0---|
A|----------------------------------------|
E|----------------------------------------|
  Change_________________________________

e|---1--1--1--1--1--1--1--1--1--1--1--1---|
B|---2--2--2--2--2--2--2--2--2--2--2--2---|
G|---2--2--2--2--2--2--2--2--2--2--2--2---|
D|---0--0--0--0--0--0--0--0--0--0--0--0---|
A|----------------------------------------|
E|----------------------------------------|
  ____                   Ev  -  'ry  thing

e|---1--1--1--1--1--1--1--1--1--1--1--1---|
B|---1--1--1--1--1--1--1--1--1--1--1--1---|
G|---2--2--2--2--2--2--2--2--2--2--2--2---|
D|---0--0--0--0--0--0--0--0--0--0--0--0---|
A|----------------------------------------|
E|----------------------------------------|
  You     are,______________

e|---1--1--1--1--1--1--1--1--1--1--1--1---|
B|---0--0--0--0--0--0--0--0--0--0--0--0---|
G|---2--2--2--2--2--2--2--2--2--2--2--2---|
D|---0--0--0--0--0--0--0--0--0--0--0--0---|
A|----------------------------------------|
E|----------------------------------------|
              and ev  -  'ry  -  thing

e|---1--1--1--1--1--1--1--1--1--1--1--1---|
B|---3--3--3--3--3--3--3--3--3--3--3--3---|
G|---3--3--3--3--3--3--3--3--3--3--3--3---|
D|---0--0--0--0--0--0--0--0--0--0--0--0---|
A|----------------------------------------|
E|----------------------------------------|
  You      were,______________

e|---1--1--1--1--1--1--1--1--1--1--1--1---|
B|---3--3--3--3--3--3--3--3--3--3--3--3---|
G|---2--2--2--2--2--2--2--2--2--2--2--2---|
D|---0--0--0--0--0--0--0--0--0--0--0--0---|
A|----------------------------------------|
E|----------------------------------------|


e|---x--x--x--x--x--x--x--x--x--x--x--x---|
B|---2--2--2--2--2--2--2--2--2--2--2--2---|
G|---4--4--4--4--4--4--4--4--4--4--4--4---|
D|---3--3--3--3--3--3--3--3--3--3--3--3---|
A|---x--x--x--x--x--x--x--x--x--x--x--x---|
E|---4--4--4--4--4--4--4--4--4--4--4--4---|
  Your

e|---x--x--x--x--x--x--x--x--x--x--x--x---|
B|---2--2--2--2--2--2--2--2--2--2--2--2---|
G|---4--4--4--4--4--4--4--4--4--4--4--4---|
D|---3--3--3--3--3--3--3--3--3--3--3--3---|
A|---x--x--x--x--x--x--x--x--x--x--x--x---|
E|---0--0--0--0--0--0--0--0--0--0--0--0---|
  Num   -   -   -   ber    has___________

e|---0--0--0--0--0--0--0--0--0--0--0--0---|
B|---2--2--2--2--2--2--2--2--2--2--2--2---|
G|---2--2--2--2--2--2--2--2--2--2--2--2---|
D|---2--2--2--2--2--2--2--2--2--2--2--2---|
A|---0--0--0--0--0--0--0--0--0--0--0--0---|
E|----------------------------------------|
  _____  been  called.______

e|---1--1--1--1--1--1--1--1--1--1--1--1---|
B|---3--3--3--3--3--3--3--3--3--3--3--3---|
G|---2--2--2--2--2--2--2--2--2--2--2--2---|
D|---0--0--0--0--0--0--0--0--0--0--0--0---|
A|----------------------------------------|
E|----------------------------------------|
  Fights,_________________________________

e|---1--1--1--1--1--1--1--1--1--1--1--1---|
B|---2--2--2--2--2--2--2--2--2--2--2--2---|
G|---2--2--2--2--2--2--2--2--2--2--2--2---|
D|---0--0--0--0--0--0--0--0--0--0--0--0---|
A|----------------------------------------|
E|----------------------------------------|
  __                    bat  -  tles  have

e|---1--1--1--1--1--1--1--1--1--1--1--1---|
B|---1--1--1--1--1--1--1--1--1--1--1--1---|
G|---2--2--2--2--2--2--2--2--2--2--2--2---|
D|---0--0--0--0--0--0--0--0--0--0--0--0---|
A|----------------------------------------|
E|----------------------------------------|
  Be  -  gun,_______________

e|---1--1--1--1--1--1--1--1--1--1--1--1---|
B|---0--0--0--0--0--0--0--0--0--0--0--0---|
G|---2--2--2--2--2--2--2--2--2--2--2--2---|
D|---0--0--0--0--0--0--0--0--0--0--0--0---|
A|----------------------------------------|
E|----------------------------------------|
           re  -  venge   will   sure  -  

e|---1--1--1--1--1--1--1--1--1--1--1--1---|
B|---3--3--3--3--3--3--3--3--3--3--3--3---|
G|---3--3--3--3--3--3--3--3--3--3--3--3---|
D|---0--0--0--0--0--0--0--0--0--0--0--0---|
A|----------------------------------------|
E|----------------------------------------|
  - ly      come,_____________

e|---1--1--1--1--1--1--1--1--1--1--1--1---|
B|---3--3--3--3--3--3--3--3--3--3--3--3---|
G|---2--2--2--2--2--2--2--2--2--2--2--2---|
D|---0--0--0--0--0--0--0--0--0--0--0--0---|
A|----------------------------------------|
E|----------------------------------------|


e|---x--x--x--x--x--x--x--x--x--x--x--x---|
B|---2--2--2--2--2--2--2--2--2--2--2--2---|
G|---4--4--4--4--4--4--4--4--4--4--4--4---|
D|---3--3--3--3--3--3--3--3--3--3--3--3---|
A|---x--x--x--x--x--x--x--x--x--x--x--x---|
E|---4--4--4--4--4--4--4--4--4--4--4--4---|
  Your

e|---x--x--x--x--x--x--x--x--x--x--x--x---|
B|---2--2--2--2--2--2--2--2--2--2--2--2---|
G|---4--4--4--4--4--4--4--4--4--4--4--4---|
D|---3--3--3--3--3--3--3--3--3--3--3--3---|
A|---x--x--x--x--x--x--x--x--x--x--x--x---|
E|---0--0--0--0--0--0--0--0--0--0--0--0---|
  Num   -   -   -   ber    has___________

e|---0--0--0--0--0--0--0--0--0--0--0--0---|
B|---2--2--2--2--2--2--2--2--2--2--2--2---|
G|---2--2--2--2--2--2--2--2--2--2--2--2---|
D|---2--2--2--2--2--2--2--2--2--2--2--2---|
A|---0--0--0--0--0--0--0--0--0--0--0--0---|
E|----------------------------------------|
  _____  been  called.______

      Fx/Phaser

e|---6--6--6--6--6--6--5--5--5--5--5--5---|
B|---6--6--6--6--6--6--6--6--6--6--6--6---|
G|---7--7--7--7--7--7--7--7--7--7--7--7---|
D|---8--8--8--8--8--8--7--7--7--7--7--7---|
A|---8--8--8--8--8--8--5--5--5--5--5--5---|
E|---6--6--6--6--6--6---------------------|
  Best__________________  you've got to

e|---6--6--6--6--6--6--5--5--5--5--5--5---|
B|---6--6--6--6--6--6--6--6--6--6--6--6---|
G|---7--7--7--7--7--7--7--7--7--7--7--7---|
D|---8--8--8--8--8--8--7--7--7--7--7--7---|
A|---8--8--8--8--8--8--5--5--5--5--5--5---|
E|---6--6--6--6--6--6---------------------|
  be  -  the best,________ You've got to

e|---6--6--6--6--6--6--8--8--8--8--8--8----|
B|---6--6--6--6--6--6--10-10-10-10-10-10---|
G|---7--7--7--7--7--7--10-10-10-10-10-10---|
D|---8--8--8--8--8--8--10-10-10-10-10-10---|
A|---8--8--8--8--8--8--8--8--8--8--8--8----|
E|---6--6--6--6--6--6----------------------|
  change___ the world       and      use  

e|---------------------10-10-10-10-10-10---|
B|---10-10-10-10-10-10-11-11-11-11-11-11---|
G|---11-11-11-11-11-11-12-12-12-12-12-12---|
D|---12-12-12-12-12-12-12-12-12-12-12-12---|
A|---12-12-12-12-12-12-10-10-10-10-10-10---|
E|---10-10-10-10-10-10---------------------|
  this chance_____ to   be heard________

e|------------------------------------------------------|
B|---11-11-11-11-11-11-11-11--10-10-10-10-10-10-10-10---|
G|---10-10-10-10-10-10-10-10--10-10-10-10-10-10-10-10---|
D|---12-12-12-12-12-12-12-12--10-10-10-10-10-10-10-10---|
A|------------------------------------------------------| x2
E|------------------------------------------------------|
  Your_______________________ time_________________   is

e|------------------------------------------------------|
B|---11-11-11-11-11-11-11-11--10-10-10-10-10-10-10-10---|
G|---9--9--9--9--9--9--9--9---9--9--9--9--9--9--9--9----|
D|---11-11-11-11-11-11-11-11--11-11-11-11-11-11-11-11---|
A|------------------------------------------------------|
E|------------------------------------------------------|
    Now________________________________________

      Fx/Distorsion

e|--------------------------------------------|
B|--------------------------------------------|
G|--------------------------------------------|
D|--------------------------------------------|
A|-----------7x--4------------7x--4-----------|
E|---/\---5x---------6-5-6-5x---------6-5-6---|

      Fx/Distorsion

e|----------------------------------------------------|
B|----------------------------------------------------|
G|---7--7--7--7--7--7--7--7--6--6--6--6--6--6--6--6---|
D|---x--x--x--x--x--x--x--x--x--x--x--x--x--x--x--x---|
A|---5--5--5--5--5--5--5--5--4--4--4--4--4--4--4--4---|
E|----------------------------------------------------|
  Change________________________________  every______

e|----------------------------------------------------|
B|----------------------------------------------------|
G|---5--5--5--5--5--5--5--5--4--4--4--4--4--4--4--4---|
D|---x--x--x--x--x--x--x--x--x--x--x--x--x--x--x--x---|
A|---3--3--3--3--3--3--3--3--2--2--2--2--2--2--2--2---|
E|----------------------------------------------------|
  thing    you    are_______________   and   every-

e|----------------------------------------------------|
B|----------------------------------------------------|
G|---3--3--3--3--3--3--3--3--7--7--6--6--5--5--4--3---|
D|---x--x--x--x--x--x--x--x--x--x--x--x--x--x--x--x---|
A|---1--1--1--1--1--1--1--1--5--5--4--4--3--3--2--1---|
E|----------------------------------------------------|
  -thing you were,__________

e|---x--x--x--x--x--x--x--x--x--x--x--x---|
B|---2--2--2--2--2--2--2--2--2--2--2--2---|
G|---4--4--4--4--4--4--4--4--4--4--4--4---|
D|---3--3--3--3--3--3--3--3--3--3--3--3---|
A|---x--x--x--x--x--x--x--x--x--x--x--x---|
E|---4--4--4--4--4--4--4--4--4--4--4--4---|
  Your

e|---x--x--x--x--x--x--x--x--x--x--x--x---|
B|---2--2--2--2--2--2--2--2--2--2--2--2---|
G|---4--4--4--4--4--4--4--4--4--4--4--4---|
D|---3--3--3--3--3--3--3--3--3--3--3--3---|
A|---x--x--x--x--x--x--x--x--x--x--x--x---|
E|---0--0--0--0--0--0--0--0--0--0--0--0---|
  Num   -   -   -   ber    has___been__

e|----------------------------------------|
B|----------------------------------------|
G|---6--6--6--6--6--6--6--6--6--6--6--6---|
D|---7--7--7--7--7--7--7--7--7--7--7--7---|
A|---7--7--7--7--7--7--7--7--7--7--7--7---|
E|---5--5--5--5--5--5--5--5--5--5--5--5---|
  __ cal - - led.______

e|----------------------------------------------------|
B|----------------------------------------------------|
G|---7--7--7--7--7--7--7--7--9--9--9--9--9--9--9--9---|
D|---x--x--x--x--x--x--x--x--x--x--x--x--x--x--x--x---|
A|---5--5--5--5--5--5--5--5--7--7--7--7--7--7--7--7---|
E|----------------------------------------------------|
  Fights,___________________________ bat  -  tles 

e|-----------------------------------------------------|
B|-----------------------------------------------------|
G|---10-10-10-10-10-10-10-10-12-12-12-12-12-12-12-12---|
D|---x--x--x--x--x--x--x--x--x--x--x--x--x--x--x--x----|
A|---8--8--8--8--8--8--8--8--10-10-10-10-10-10-10-10---|
E|-----------------------------------------------------|
  have  be  -  gun,_____________ re  -  venge   will  

e|-----------------------------------------------------|
B|-----------------------------------------------------|
G|---14-14-14-14-14-14-14-14-14-14-14-14-14-14-14-14---|
D|---x--x--x--x--x--x--x--x--x--x--x--x--x--x--x--x----|
A|---12-12-12-12-12-12-12-12-12-12-12-12-12-12-12-12---|
E|-----------------------------------------------------|
  sure  -  ly  come,___________________

e|-----------------------------------------------------|
B|-----------------------------------------------------|
G|---13-13-13-13-13-13-13-13-13-13-13-13-13-13-13-13---|
D|---x--x--x--x--x--x--x--x--x--x--x--x--x--x--x--x----|
A|---11-11-11-11-11-11-11-11-11-11-11-11-11-11-11-11---|
E|-----------------------------------------------------|
  Your____________  hard   -   -   -   times    are__

e|-----------------------------------------------------|
B|-----------------------------------------------------|
G|---14-14-14-14-14-14-14-14-14-14-14-14---------------|
D|---x--x--x--x--x--x--x--x--x--x--x--x----------------|
A|---12-12-12-12-12-12-12-12-12-12-12-12---------------|
E|----------------------------------------17///////6---|
  _____  a  head.______________________

      Fx/Distorsion

e|---6--6--6--6--6--6--5--5--5--5--5--5---|
B|---6--6--6--6--6--6--6--6--6--6--6--6---|
G|---7--7--7--7--7--7--7--7--7--7--7--7---|
D|---8--8--8--8--8--8--7--7--7--7--7--7---|
A|---8--8--8--8--8--8--5--5--5--5--5--5---|
E|---6--6--6--6--6--6---------------------|
  Best__________________  you've got to

e|---6--6--6--6--6--6--5--5--5--5--5--5---|
B|---6--6--6--6--6--6--6--6--6--6--6--6---|
G|---7--7--7--7--7--7--7--7--7--7--7--7---|
D|---8--8--8--8--8--8--7--7--7--7--7--7---|
A|---8--8--8--8--8--8--5--5--5--5--5--5---|
E|---6--6--6--6--6--6---------------------|
  be  -  the best,________ You've got to

e|---6--6--6--6--6--6--8--8--8--8--8--8----|
B|---6--6--6--6--6--6--10-10-10-10-10-10---|
G|---7--7--7--7--7--7--10-10-10-10-10-10---|
D|---8--8--8--8--8--8--10-10-10-10-10-10---|
A|---8--8--8--8--8--8--8--8--8--8--8--8----|
E|---6--6--6--6--6--6----------------------|
  change___ the world       and      use  

e|---------------------10-10-10-10-10-10---|
B|---10-10-10-10-10-10-11-11-11-11-11-11---|
G|---11-11-11-11-11-11-12-12-12-12-12-12---|
D|---12-12-12-12-12-12-12-12-12-12-12-12---|
A|---12-12-12-12-12-12-10-10-10-10-10-10---|
E|---10-10-10-10-10-10---------------------|
  this chance_____ to   be heard________

e|------------------------------------------------------|
B|---11-11-11-11-11-11-11-11--10-10-10-10-10-10-10-10---|
G|---10-10-10-10-10-10-10-10--10-10-10-10-10-10-10-10---|
D|---12-12-12-12-12-12-12-12--10-10-10-10-10-10-10-10---|
A|------------------------------------------------------| x2
E|------------------------------------------------------|
  Your_______________________ time_________________ is

e|------------------------------------------------------|
B|---11-11-11-11-11-11-11-11--10-10-10-10-10-10-10-10---|
G|---9--9--9--9--9--9--9--9---9--9--9--9--9--9--9--9----|
D|---11-11-11-11-11-11-11-11--11-11-11-11-11-11-11-11---|
A|------------------------------------------------------|
E|------------------------------------------------------|
    Now________________________________________

      Fx/Distorsion

e|----||-----------------------------------------------------------------|
B|----||-----------------------------------------------------------------|
G|----||-----------------------------------------------------------------|
D|----||-----------------------------------------------------------------|
A|----||----7x--4-----------7x--4-----------8x--5-----------8x--5--------| x2
E|-/\-||-5x----------5-6-5x--------6-5-6-6x----------5-6-6x--------6-5-6-|

      Fx/Distorsion

Ok the solo was really diffecult to tab out as it all tremplo picking.
Watch the DVD and you'll pick it up after awhile.

  Tp_______________________
e|--------------------------|
B|--------------------------|
G|--9-9-9-9-9-9-9-9-9-9-9---|
D|--9-9-9-9-9-9-9-9-9-9-9---|
A|--------------------------|
E|--------------------------|

  Tp______________________________________
e|-----------------------------------------|
B|-----------------------------------------|
G|---7--9--10--9--7--9--7--7--9--7--7--9---|
D|---9--9--9---9--9--9--9--9--9--9--9--9---|
A|-----------------------------------------|
E|-----------------------------------------|

  Tp________________________________________
e|--------------------------------------------|
B|--------------------------------------------|
G|---7--9--10--9--7--10--7--7--10--7--7--10---|
D|---9--9--9---9--9--9---9--9--9---9--9--9----|
A|--------------------------------------------|
E|--------------------------------------------|

  Tp__________________________________________
e|----------------------------------------------|
B|----------------------------------------------|
G|---9--10--12--7--7--10--7--7--10--7--10--12---|
D|---9--9---9---9--9--9---9--9--9---9--9---9----|
A|----------------------------------------------|
E|----------------------------------------------|

e|----------------------------------------------------------|
B|---10--10--10--------10--10--10--------11--11--11---------|
G|---12b-12b-12b-------12b-12b-12b-------13b-13b-13b--------|
D|----------------------------------------------------------|
A|----------------------------------------------------------|
E|----------------17\---------------17\---------------17\---|

e|-----------------------------|
B|-----------------------------|
G|---3--3--3--5--5--5--6--7\---|
D|---3--3--3--5--5--5--6--7\---|
A|---1--1--1--3--3--3--4--5\---|
E|-----------------------------|

     
Im pretty sure there's a musical genisus out there in the world that could
translate the piano part on to the guitar! That musical genisus just so happens
to be NOT me! lol

      Fx/Phaser

e|---1--1--1--1--1--1--1--1--1--1--1--1---|
B|---3--3--3--3--3--3--3--3--3--3--3--3---|
G|---2--2--2--2--2--2--2--2--2--2--2--2---|
D|---0--0--0--0--0--0--0--0--0--0--0--0---|
A|----------------------------------------|
E|----------------------------------------|
  Change_________________________________

e|---1--1--1--1--1--1--1--1--1--1--1--1---|
B|---2--2--2--2--2--2--2--2--2--2--2--2---|
G|---2--2--2--2--2--2--2--2--2--2--2--2---|
D|---0--0--0--0--0--0--0--0--0--0--0--0---|
A|----------------------------------------|
E|----------------------------------------|
  ____                   Ev  -  'ry  thing

e|---1--1--1--1--1--1--1--1--1--1--1--1---|
B|---1--1--1--1--1--1--1--1--1--1--1--1---|
G|---2--2--2--2--2--2--2--2--2--2--2--2---|
D|---0--0--0--0--0--0--0--0--0--0--0--0---|
A|----------------------------------------|
E|----------------------------------------|
  You     are,______________

e|---1--1--1--1--1--1--1--1--1--1--1--1---|
B|---0--0--0--0--0--0--0--0--0--0--0--0---|
G|---2--2--2--2--2--2--2--2--2--2--2--2---|
D|---0--0--0--0--0--0--0--0--0--0--0--0---|
A|----------------------------------------|
E|----------------------------------------|
              and ev  -  'ry  -  thing

e|---1--1--1--1--1--1--1--1--1--1--1--1---|
B|---3--3--3--3--3--3--3--3--3--3--3--3---|
G|---3--3--3--3--3--3--3--3--3--3--3--3---|
D|---0--0--0--0--0--0--0--0--0--0--0--0---|
A|----------------------------------------|
E|----------------------------------------|
  You      were,______________

e|---1--1--1--1--1--1--1--1--1--1--1--1---|
B|---3--3--3--3--3--3--3--3--3--3--3--3---|
G|---2--2--2--2--2--2--2--2--2--2--2--2---|
D|---0--0--0--0--0--0--0--0--0--0--0--0---|
A|----------------------------------------|
E|----------------------------------------|


e|---x--x--x--x--x--x--x--x--x--x--x--x---|
B|---2--2--2--2--2--2--2--2--2--2--2--2---|
G|---4--4--4--4--4--4--4--4--4--4--4--4---|
D|---3--3--3--3--3--3--3--3--3--3--3--3---|
A|---x--x--x--x--x--x--x--x--x--x--x--x---|
E|---4--4--4--4--4--4--4--4--4--4--4--4---|
  Your

e|---x--x--x--x--x--x--x--x--x--x--x--x---|
B|---2--2--2--2--2--2--2--2--2--2--2--2---|
G|---4--4--4--4--4--4--4--4--4--4--4--4---|
D|---3--3--3--3--3--3--3--3--3--3--3--3---|
A|---x--x--x--x--x--x--x--x--x--x--x--x---|
E|---0--0--0--0--0--0--0--0--0--0--0--0---|
   Last____________  chance    has________

e|---0--0--0--0--0--0--0--0--0--0--0--0---|
B|---2--2--2--2--2--2--2--2--2--2--2--2---|
G|---2--2--2--2--2--2--2--2--2--2--2--2---|
D|---2--2--2--2--2--2--2--2--2--2--2--2---|
A|---0--0--0--0--0--0--0--0--0--0--0--0---|
E|----------------------------------------|
  _____  Ar - rived.________

      Fx/Distorsion

e|--------||---6--6--6--6--6--6--5--5--5--5--5--5---|
B|--------||---6--6--6--6--6--6--6--6--6--6--6--6---|
G|--------||---7--7--7--7--7--7--7--7--7--7--7--7---|
D|--------||---8--8--8--8--8--8--7--7--7--7--7--7---|
A|--------||---8--8--8--8--8--8--5--5--5--5--5--5---|
E|---/\---||---6--6--6--6--6--6---------------------|
             Best__________________  you've got to

e|---6--6--6--6--6--6--5--5--5--5--5--5---|
B|---6--6--6--6--6--6--6--6--6--6--6--6---|
G|---7--7--7--7--7--7--7--7--7--7--7--7---|
D|---8--8--8--8--8--8--7--7--7--7--7--7---|
A|---8--8--8--8--8--8--5--5--5--5--5--5---|
E|---6--6--6--6--6--6---------------------|
  be  -  the best,________ You've got to

e|---6--6--6--6--6--6--8--8--8--8--8--8----|
B|---6--6--6--6--6--6--10-10-10-10-10-10---|
G|---7--7--7--7--7--7--10-10-10-10-10-10---|
D|---8--8--8--8--8--8--10-10-10-10-10-10---|
A|---8--8--8--8--8--8--8--8--8--8--8--8----|
E|---6--6--6--6--6--6----------------------|
  change___ the world       and      use  

e|---------------------10-10-10-10-10-10---|
B|---10-10-10-10-10-10-11-11-11-11-11-11---|
G|---11-11-11-11-11-11-12-12-12-12-12-12---|
D|---12-12-12-12-12-12-12-12-12-12-12-12---|
A|---12-12-12-12-12-12-10-10-10-10-10-10---|
E|---10-10-10-10-10-10---------------------|
  this chance_____ to   be heard________

e|------------------------------------------------------|
B|---11-11-11-11-11-11-11-11--10-10-10-10-10-10-10-10---|
G|---10-10-10-10-10-10-10-10--10-10-10-10-10-10-10-10---|
D|---12-12-12-12-12-12-12-12--10-10-10-10-10-10-10-10---|
A|------------------------------------------------------| x2
E|------------------------------------------------------|
  Your_______________________ time_________________ is

e|------------------------------------------------------|
B|---11-11-11-11-11-11-11-11--10-10-10-10-10-10-10-10---|
G|---9--9--9--9--9--9--9--9---9--9--9--9--9--9--9--9----|
D|---11-11-11-11-11-11-11-11--11-11-11-11-11-11-11-11---|
A|------------------------------------------------------|
E|------------------------------------------------------|
    Now________________________________________

      Fx/Distorsion

e|--------------------------------------------||--------|
B|--------------------------------------------||--------|
G|--------------------------------------------||---7\---|
D|--------------------------------------------||---7\---|
A|-----------7x--4------------7x--4-----------||---5\---|
E|---/\---5x---------6-5-6-5x---------6-5-6---||--------|





Comments


Popular Muse tabs & chords
Citizen Erased Bass Tabs
Micro Cuts 3 Bass Tabs
The Smallprint 1 Bass Tabs
Apocalypse Please Chords
Assassin 2 Tabs
Fillip Tabs
In Your World 1 Tabs
Jimmy Kane Tabs
Nature_1 Tabs
Host Ukulele


Song lyrics



↑ Back to top | Tablatures and chords are parodies/interpretations of the original songs. You may use it for private study, scholarship, research or language learning purposes only
© 2014 AZChords.com Contact us | Privacy policy | DMCA | Add/correct tabs | Request tabs | Top 50 tabs