» » »

Muse, Burning Bandits Bass tabs (ver.1)

Artists:  A B C D E F G H I J K L M N O P Q R S T U V W X Y Z # 

Burning Bandits Bass tabs (ver.1)

Muse Tabs
 Rating:
4/5 (4 votes)
Burning Bandits lessons Tabs too difficult? Try these video lessons and learn fast
                -------------------------------------------------------------------------------
			     BURNING BANDITS - Muse
-------------------------------------------------------------------------------


Tuning:standard

This is a tab of a new song by muse, called burning bandits I tabbed this
I'm happy to get feedback good or bad fankoo.

(this might be chris gettin feel for bass)
G|--------------------------------------------------------------------------|
D|--3--5--3--2--0--3--0-----------------------------------------------------|
A|--------------------------------------------------------------------------|
E|--------------------------------------------------------------------------|

Riff
G|--------------------------------------------------------------------------|
D|--------------------------------------------------------------------------|
A|--------------------------------------------------------------------------|
E|10-10-10-8-10-12-13-13-12-13-12-8-10-10-10-8-10-12-13-13-12-13-12-8-------|

G|---------------------------------------------------------------------------|
D|---------------------------------------------------------------------------|
A|---------------------------------------------------------------------------|
E|6-6-5-6-8--1-1-1-0-1-3-5-5-5-3-5-8-10-10-8-10-8-7-6-6-5-6-8-1-1-1-0-1-3-55-|

G|---------------------------------------------------------------------------|
D|---------------------------------------------------------------------------|
A|---------------------------------------------------------------------------|
E|5-3-5-6-5-5-6-5-3-1-8--------------------------------------------------x---|3)


chorus
G|--------------------------------------------------------------------------|
D|--------------------------------------------------------------------------|
A|5-(x16)-3(x16)-------0-(1-(x8)--------------------------------------------|
E|----------------1(x7)----------10-10-10-8-10-13-10-10-8-6-5-6-8-----------|

G|---------------------------------------------------------------------------|
D|---------------------------------------------------------------------------|
A|5(x16)--7-7-8-8-(3-(x16)---------0-(1-(x8)---------------------------------|
E|--------------------------1(x7)------------10-10-10-8-10-13-10-10-8-6-5-68-|

Matt should now play a solo this is just the main riff for bass

after that there is the chorus and the ending is just a variation on the main riff

PS BEAR IN MIND THIS IS A VERY ROUGH OUTLINE OF A LIVE VERSION WHENEVER A STUDIO
VERSION ARISES IT MAY OR MAY NOT BE SIMILIAR

===============================================================================
            
Submit corrections

comments powered by Disqus
↑ Back to top | Muse Bass for Burning Bandits. Lyrics for acoustic guitar and electric guitar. Tablatures and chords are parodies/interpretations of the original songs. You may use it for private study, scholarship, research or language learning purposes only