>
 >
Bliss Studio Edit

Bliss Studio Edit Guitar Tabs

Muse - Bliss Studio Edit chords, tabs, tablatures, lyrics

Guitar lessons | Add/correct | Request | Top 50 tabs Artists:  A B C D E F G H I J K L M N O P Q R S T U V W X Y Z 0-9

Bliss Studio Edit Guitar Tabs – Muse

CD, Sheet music, Poster

Do you like Bliss Studio Edit? Share with your friends now
Tabs
Muse
Bliss
Origin Of Symmetry
2001

The Guitar I bit is the synth piano thnigy, but you can atempt this on a guitar if you're that amazing at guitar

 Intro
            Q=129
            Cm
 4/4
            Gtr I
|---------|--------------3--8-11-15-11--8-3-----------|
|---------|------------4---------------------4--------|
|---------|---------5--------------------------5------|
|---------|-------5-------------------------------5---|
|---------|----6------------------------------------6-|
|---------|--8----------------------------------------|
|
|           Gtr II
|---------|-11-------------11---------------11--------|
|---------|------13--------------13--------------13---|
|---------|-----------12---------------12-------------|
|---------|-------------------------------------------|
|---------|-------------------------------------------|
|---------|-------------------------------------------|


  Bb
|--------------1--6-10-13-10--6-1-----------|
|------------3---------------------3--------|
|---------3--------------------------3------|
|-------3-------------------------------3---|
|----5------------------------------------5-|
|--6----------------------------------------|
|
|-10-------------10---------------10--------|
|------11--------------11--------------11---|
|-----------10---------------10-------------|
|-------------------------------------------|
|-------------------------------------------|
|-------------------------------------------|


  Fm
|-------------------5--8-5----------------|
|-----------------6---------6-------------|
|------------1-5--------------5--1--------|
|---------3------------------------3------|
|----0--3-----------------------------3-0-|
|--1--------------------------------------|
|
|-13-------------13-------------13--------|
|------13-------------13-------------13---|
|-----------13-------------13-------------|
|-----------------------------------------|
|-----------------------------------------|
|-----------------------------------------|


  Cm
|--------------3--8-11-15-11--8-3------------|
|------------4---------------------4---------|
|---------5--------------------------5-------|
|-------5-------------------------------5----|
|----6------------------------------------6--|
|--8-----------------------------------------|
|
|-11-------------11---------------11---------|
|------13--------------13--------------13----|
|-----------12---------------12--------------|
|--------------------------------------------|
|--------------------------------------------|
|--------------------------------------------|


  Bb
|--------------1--6-10-13-10--6-1-----------|
|------------3---------------------3--------|
|---------3--------------------------3------|
|-------3-------------------------------3---|
|----5------------------------------------5-|
|--6----------------------------------------|
|
|-10-------------10---------------10--------|
|------11--------------11--------------11---|
|-----------10---------------10-------------|
|-------------------------------------------|
|-------------------------------------------|
|-------------------------------------------|


  Fm
|-------------------5--8-5-----------------|
|-----------------6---------6--------------|
|------------1-5--------------5--1---------|
|---------3------------------------3-------|
|----0--3-----------------------------3-0--|
|--1---------------------------------------|
|
|-13-------------13-------------13---------|
|------13-------------13-------------13----|
|-----------13-------------13--------------|
|------------------------------------------|
|------------------------------------------|
|------------------------------------------|


  Cm
|--------------3--8-11-15-11--8-3-----------|
|------------4---------------------4--------|
|---------5--------------------------5------|
|-------5-------------------------------5---|
|----6------------------------------------6-|
|--8----------------------------------------|
|
| Gtr III
|-11---11---11---11----11----11---11---11---|
|-13---13---13---13----13----13---13---13---|
|-12---12---12---12----12----12---12---12---|
|-------------------------------------------|
|-------------------------------------------|
|-------------------------------------------|


|-----------3-8-11-15-11-8-3----------||
|---------4------------------4--------||
|-------5----------------------5------||
|-----5--------------------------5----||
|---6------------------------------6--||
|-8-----------------------------------||
|
|-x-x-x-x-x-x-x--x--x--x-x-x-0--------||
|-x-x-x-x-x-x-x--x--x--x-x-x-0--------||
|-x-x-x-x-x-x-x--x--x--x-x-x-0--------||
|-------------------------------------||
|-------------------------------------||
|-------------------------------------||


    Cm                                   Bb
    Gtr II
||-------------------------------------|------------------------------------|
||o-4-------4---------4--------4---x-x-|-x-x-3---3---x--x--x--x-3---3---x-x-|
||--5-------5---------5--------5---x-x-|-x-x-3---3---x--x--x--x-3---3---x-x-|
||--5-------5---------5--------5---x-x-|-x-x-3---3---x--x--x--x-3---3---x-x-|
||o-3-------3---------3--------3---x-x-|-x-x-1---1---x--x--x--x-1---1---x-x-|
||-------------------------------------|------------------------------------|
|
|   Gtr I
||------------3-8-11-15-11-8-3---------|-----------1-6-10-13-10-6-1---------|
||o---------4------------------4-------|---------3------------------3-------|
||--------5----------------------5-----|-------3----------------------3-----|
||------5--------------------------5---|-----3--------------------------3---|
||o---6------------------------------6-|---5------------------------------5-|
||--8----------------------------------|-6----------------------------------|


  Fm                                Cm
|-1-------1-------1-------1---x-x-|------------------------------------|
|-1-------1-------1-------1---x-x-|-x-x-4---4---x--x--x--x-4---4---x-x-|
|-1-------1-------1-------1---x-x-|-x-x-5---5---x--x--x--x-5---5---x-x-|
|-3-------3-------3-------3---x-x-|-x-x-5---5---x--x--x--x-5---5---x-x-|
|-3-------3-------3-------3---x-x-|-x-x-3---3---x--x--x--x-3---3---x-x-|
|-1-------1-------1-------1---x-x-|------------------------------------|
|
|---------------5-8-5-------------|-----------3-8-11-15-11-8-3---------|
|-------------6-------6-----------|---------4------------------4-------|
|---------1-5-----------5-1-------|-------5----------------------5-----|
|-------3-------------------3-----|-----5--------------------------5---|
|---0-3-----------------------3-0-|---6------------------------------6-|
|-1-------------------------------|-8----------------------------------|


  Bb
|---------------------------------------|
|-3-------3---------3--------3---x-x----|
|-3-------3---------3--------3---x-x----|
|-3-------3---------3--------3---x-x----|
|-1-------1---------1--------1---x-x----|
|---------------------------------------|
|
|-----------1-6-10-13-10-6-1------------|
|---------3------------------3----------|
|-------3----------------------3--------|
|-----3--------------------------3------|
|---5------------------------------5----|
|-6-------------------------------------|


  Fm                                Cm
|-x-x-1---1---x-x-x-x-1---1---x-x-|------------------------------------|
|-x-x-1---1---x-x-x-x-1---1---x-x-|-4-------4---------4--------4---x-x-|
|-x-x-1---1---x-x-x-x-1---1---x-x-|-5-------5---------5--------5---x-x-|
|-x-x-3---3---x-x-x-x-3---3---x-x-|-5-------5---------5--------5---x-x-|
|-x-x-3---3---x-x-x-x-3---3---x-x-|-3-------3---------3--------3---x-x-|
|-x-x-1---1---x-x-x-x-1---1---x-x-|------------------------------------|
|
|---------------5-8-5-------------|-----------3-8-11-15-11-8-3---------|
|-------------6-------6-----------|---------4------------------4-------|
|---------1-5-----------5-1-------|-------5----------------------5-----|
|-------3-------------------3-----|-----5--------------------------5---|
|---0-3-----------------------3-0-|---6------------------------------6-|
|-1-------------------------------|-8----------------------------------|


|---------------------------------------||
|-x-x-4---4---x--x--x--x-4---4---4------||
|-x-x-5---5---x--x--x--x-5---5---5------||
|-x-x-5---5---x--x--x--x-5---5---5------||
|-x-x-3---3---x--x--x--x-3---3---3------||
|---------------------------------------||
|
|-----------3-8-11-15-11-8-3------------||
|---------4------------------4----------||
|-------5----------------------5--------||
|-----5--------------------------5------||
|---6------------------------------6----||
|-8-------------------------------------||


 Verse
  Cm                                   Bb
  Gtr III
|------------------------------------|-------------------------------------|
|------------------------------------|-------------------------------------|
|------------------------------------|-------------------------------------|
|------------------------------------|-------------------------------------|
|------------------------------------|-------------------------------------|
|------------------------------------|-------------------------------------|
|
|-----------3-8-11-15-11-8-3---------|-----------1-6-10-13-10-6-1----------|
|---------4------------------4-------|---------3------------------3--------|
|-------5----------------------5-----|-------3----------------------3------|
|-----5--------------------------5---|-----3--------------------------3----|
|---6------------------------------6-|---5------------------------------5--|
|-8----------------------------------|-6-----------------------------------|


  Fm                                Cm
|---------------------------------|------------------------------------|
|---------------------------------|------------------------------------|
|---------------------------------|------------------------------------|
|---------------------------------|------------------------------------|
|---------------------------------|------------------------------------|
|---------------------------------|------------------------------------|
|
|---------------5-8-5-------------|-----------3-8-11-15-11-8-3---------|
|-------------6-------6-----------|---------4------------------4-------|
|---------1-5-----------5-1-------|-------5----------------------5-----|
|-------3-------------------3-----|-----5--------------------------5---|
|---0-3-----------------------3-0-|---6------------------------------6-|
|-1-------------------------------|-8----------------------------------|


  Bb
|---------------------------------------|
|---------------------------------------|
|---------------------------------------|
|---------------------------------------|
|---------------------------------------|
|---------------------------------------|
|
|-----------1-6-10-13-10-6-1------------|
|---------3------------------3----------|
|-------3----------------------3--------|
|-----3--------------------------3------|
|---5------------------------------5----|
|-6-------------------------------------|


  Fm                                Cm
|---------------------------------|------------------------------------|
|---------------------------------|------------------------------------|
|---------------------------------|------------------------------------|
|---------------------------------|------------------------------------|
|---------------------------------|------------------------------------|
|---------------------------------|------------------------------------|
|
|---------------5-8-5-------------|-----------3-8-11-15-11-8-3---------|
|-------------6-------6-----------|---------4------------------4-------|
|---------1-5-----------5-1-------|-------5----------------------5-----|
|-------3-------------------3-----|-----5--------------------------5---|
|---0-3-----------------------3-0-|---6------------------------------6-|
|-1-------------------------------|-8----------------------------------|


|------------------------------------------|
|------------------------------------------|
|------------------------------------------|
|-------------------7tr8-------------------|
|------------------------------------------|
|------------------------------------------|
|
|-----------3-8-11-15----11-8-3------------|
|---------4---------------------4----------|
|-------5-------------------------5--------|
|-----5-----------------------------5------|
|---6---------------------------------6----|
|-8----------------------------------------|


                                              Bb
|-11-------------11---------------11--------|-10-------------10---------------10--------|
|------13--------------13--------------13---|------11--------------11--------------11---|
|-----------12---------------12-------------|-----------10---------------10-------------|
|-------------------------------------------|-------------------------------------------|
|-------------------------------------------|-------------------------------------------|
|-------------------------------------------|-------------------------------------------|
|
|--------------3--8-11-15-11--8-3-----------|--------------1--6-10-13-10--6-1-----------|
|------------4---------------------4--------|------------3---------------------3--------|
|---------5--------------------------5------|---------3--------------------------3------|
|-------5-------------------------------5---|-------3-------------------------------3---|
|----6------------------------------------6-|----5------------------------------------5-|
|--8----------------------------------------|--6----------------------------------------|


  Fm
|-13-------------13-------------13-----------|
|------13-------------13-------------13------|
|-----------13-------------13----------------|
|--------------------------------------------|
|--------------------------------------------|
|--------------------------------------------|
|
|-------------------5--8-5-------------------|
|-----------------6---------6----------------|
|------------1-5--------------5--1-----------|
|---------3------------------------3---------|
|----0--3-----------------------------3-0----|
|--1-----------------------------------------|


  Cm                                          Bb
|-11-------------11---------------11--------|-10-------------10---------------10--------|
|------13--------------13--------------13---|------11--------------11--------------11---|
|-----------12---------------12-------------|-----------10---------------10-------------|
|-------------------------------------------|-------------------------------------------|
|-------------------------------------------|-------------------------------------------|
|-------------------------------------------|-------------------------------------------|
|
|--------------3--8-11-15-11--8-3-----------|--------------1--6-10-13-10--6-1-----------|
|------------4---------------------4--------|------------3---------------------3--------|
|---------5--------------------------5------|---------3--------------------------3------|
|-------5-------------------------------5---|-------3-------------------------------3---|
|----6------------------------------------6-|----5------------------------------------5-|
|--8----------------------------------------|--6----------------------------------------|


  Fm
|-13-------------13-------------13-----------|
|------13-------------13-------------13------|
|-----------13-------------13----------------|
|--------------------------------------------|
|--------------------------------------------|
|--------------------------------------------|
|
|-------------------5--8-5-------------------|
|-----------------6---------6----------------|
|------------1-5--------------5--1-----------|
|---------3------------------------3---------|
|----0--3-----------------------------3-0----|
|--1-----------------------------------------|


  Cm
|-11-------------11---------------11--------|
|------13--------------13--------------13---|
|-----------12---------------12-------------|
|-------------------------------------------|
|-------------------------------------------|
|-------------------------------------------|
|
|--------------3--8-11-15-11--8-3-----------|
|------------4---------------------4--------|
|---------5--------------------------5------|
|-------5-------------------------------5---|
|----6------------------------------------6-|
|--8----------------------------------------|


|-11-------------11---------------11---------||
|------13--------------13--------------13----||
|-----------12---------------12--------------||
|--------------------------------------------||
|--------------------------------------------||
|--------------------------------------------||
|
|--------------3--8-11-15-11--8-3------------||
|------------4---------------------4---------||
|---------5--------------------------5-------||
|-------5-------------------------------5----||
|----6------------------------------------6--||
|--8-----------------------------------------||


 Chorus
  $
  Cm
  Gtr I
|-------------3-8-11-15-11-8-3----------|
|-----------4-------------------4-------|
|--------5------------------------5-----|
|------5----------------------------5---|
|----6--------------------------------6-|
|--8------------------------------------|
|
| Gtr III
|-12-------12--------12--------12-------|
|-13-------13--------13--------13-------|
|-12-------12--------12--------12-------|
|-14-------14--------14--------14-------|
|-15-------15--------15--------15-------|
|---------------------------------------|


  Bb
|-------------1-6-10-13-10-6-1-----------|
|-----------3-------------------3--------|
|--------3------------------------3------|
|------3----------------------------3----|
|----5--------------------------------5--|
|--6-------------------------------------|
|
|-12-------12--------12--------12--------|
|-13-------13--------13--------13--------|
|-14-------14--------14--------14--------|
|-14-------14--------14--------14--------|
|-12-------12--------12--------12--------|
|----------------------------------------|


  Fm
|-----------------5--8-5----------------|
|---------------6--------6--------------|
|-----------1-5------------5--1---------|
|--------3----------------------3-------|
|----0-3---------------------------3--0-|
|--1------------------------------------|
|
|-12-------12-------12-------12---12-12-|
|-13-------13-------13-------13---13-13-|
|-12-------12-------12-------12---12-12-|
|-14-------14-------14-------14---14-14-|
|---------------------------------------|
|-15-------15-------15-------15---15-15-|


  Cm
|-------------3-8-11-15-11-8-3-----------|
|-----------4-------------------4--------|
|--------5------------------------5------|
|------5----------------------------5----|
|----6--------------------------------6--|
|--8-------------------------------------|
|
|-12-------12--------12--------12--------|
|-13-------13--------13--------13--------|
|-12-------12--------12--------12--------|
|-14-------14--------14--------14--------|
|----------------------------------------|
|-15-------15--------15--------15--------|


  Bb
|--------------1--6-10-13-10--6-1-----------|
|------------3---------------------3--------|
|---------3--------------------------3------|
|-------3-------------------------------3---|
|----5------------------------------------5-|
|--6----------------------------------------|
|
|-12---12---12---12----12----12---12---12---|
|-13---13---13---13----13----13---13---13---|
|-12---12---12---12----12----12---12---12---|
|-14---14---14---14----14----14---14---14---|
|-15---15---15---15----15----15---15---15---|
|-------------------------------------------|


  Fm
|-------------------5--8-5-----------------|
|-----------------6---------6--------------|
|------------1-5--------------5--1---------|
|---------3------------------------3-------|
|----0--3-----------------------------3-0--|
|--1---------------------------------------|
|
|-12---12---12---12---12---12---12---12----|
|-13---13---13---13---13---13---13---13----|
|-14---14---14---14---14---14---14---14----|
|-14---14---14---14---14---14---14---14----|
|-12---12---12---12---12---12---12---12----|
|------------------------------------------|


  Cm
|--------------3--8-11-15-11--8-3-----------|
|------------4---------------------4--------|
|---------5--------------------------5------|
|-------5-------------------------------5---|
|----6------------------------------------6-|
|--8----------------------------------------|
|
|-12---12---12---12----12----12---12---12---|
|-12---12---12---12----12----12---12---12---|
|-13---13---13---13----13----13---13---13---|
|-14---14---14---14----14----14---14---14---|
|-14---14---14---14----14----14---14---14---|
|-12---12---12---12----12----12---12---12---|


 1.
                 C                        C
|--------------3--8-11-15-11--8-3------------|
|------------4---------------------4---------|
|---------5--------------------------5-------|
|-------5-------------------------------5----|
|----6------------------------------------6--|
|--8-----------------------------------------|
|
|-12---12---12---12----12----12---12---12----|
|-12---12---12---12----12----12---12---12----|
|-13---13---13---13----13----13---13---13----|
|-14---14---14---14----14----14---14---14----|
|-14---14---14---14----14----14---14---14----|
|-12---12---12---12----12----12---12---12----|


  N.C.            Fm
                  Gtr II
                  <
|-----------------1---1---1---1---|-1---1---1---1---1---1---1---1----||
|-----------------1---1---1---1---|-1---1---1---1---1---1---1---1---o||
|-----------------1---1---1---1---|-1---1---1---1---1---1---1---1----||
|-----------------3---3---3---3---|-3---3---3---3---3---3---3---3----||
|-----------------3---3---3---3---|-3---3---3---3---3---3---3---3---o||
|-----------------1---1---1---1---|-1---1---1---1---1---1---1---1----||
|
| Gtr I
|---------------5-8-5-------------|---------------5-8-5--------------||
|-------------6-------6-----------|-------------6-------6-----------o||
|---------1-5-----------5-1-------|---------1-5-----------5-1--------||
|-------3-------------------3-----|-------3-------------------3------||
|---0-3-----------------------3-0-|---0-3-----------------------3-0-o||
|-1-------------------------------|-1--------------------------------||


  2.
   Cm
   Gtr III
|--12-------12--------12--------12---------|
|--12-------12--------12--------12---------|
|--13-------13--------13--------13---------|
|--14-------14--------14--------14---------|
|--14-------14--------14--------14---------|
|--12-------12--------12--------12---------|
|
|  Gtr I
|--------------3-8-11-15-11-8-3------------|
|------------4-------------------4---------|
|---------5------------------------5-------|
|-------5----------------------------5-----|
|-----6--------------------------------6---|
|---8--------------------------------------|


  Bb
  Gtr I
|--------------1--6-10-13-10--6-1-----------|
|------------3---------------------3--------|
|---------3--------------------------3------|
|-------3-------------------------------3---|
|----5------------------------------------5-|
|--6----------------------------------------|
|
| Gtr III
|-12---12---12---12----12----12---12---12---|
|-13---13---13---13----13----13---13---13---|
|-12---12---12---12----12----12---12---12---|
|-14---14---14---14----14----14---14---14---|
|-15---15---15---15----15----15---15---15---|
|-------------------------------------------|


                 Fm
|-------------------5--8-5-----------------|
|-----------------6---------6--------------|
|------------1-5--------------5--1---------|
|---------3------------------------3-------|
|----0--3-----------------------------3-0--|
|--1---------------------------------------|
|
|-12---12---12---12---12---12---12---12----|
|-13---13---13---13---13---13---13---13----|
|-14---14---14---14---14---14---14---14----|
|-14---14---14---14---14---14---14---14----|
|-12---12---12---12---12---12---12---12----|
|------------------------------------------|


|--------------3--8-11-15-11--8-3-----------|
|------------4---------------------4--------|
|---------5--------------------------5------|
|-------5-------------------------------5---|
|----6------------------------------------6-|
|--8----------------------------------------|
|
|-12---12---12---12----12----12---12---12---|
|-13---13---13---13----13----13---13---13---|
|-12---12---12---12----12----12---12---12---|
|-14---14---14---14----14----14---14---14---|
|-------------------------------------------|
|-15---15---15---15----15----15---15---15---|


  Cm
|--------------1--6-10-13-10--6-1-----------|
|------------3---------------------3--------|
|---------3--------------------------3------|
|-------3-------------------------------3---|
|----5------------------------------------5-|
|--6----------------------------------------|
|
|-12---12---12---12----12----12---12---12---|
|-13---13---13---13----13----13---13---13---|
|-12---12---12---12----12----12---12---12---|
|-14---14---14---14----14----14---14---14---|
|-------------------------------------------|
|-15---15---15---15----15----15---15---15---|


  Bb
|-------------------5--8-5-----------------|
|-----------------6---------6--------------|
|------------1-5--------------5--1---------|
|---------3------------------------3-------|
|----0--3-----------------------------3-0--|
|--1---------------------------------------|
|
|-12---12---12---12---12---12---12---12----|
|-13---13---13---13---13---13---13---13----|
|-12---12---12---12---12---12---12---12----|
|-14---14---14---14---14---14---14---14----|
|-15---15---15---15---15---15---15---15----|
|------------------------------------------|


|-------------------5--8-5----------------|
|-----------------6---------6-------------|
|------------1-5--------------5--1--------|
|---------3------------------------3------|
|----0--3-----------------------------3-0-|
|--1--------------------------------------|
|
|-12---12---12---12---12---12---12---12---|
|-13---13---13---13---13---13---13---13---|
|-14---14---14---14---14---14---14---14---|
|-14---14---14---14---14---14---14---14---|
|-12---12---12---12---12---12---12---12---|
|-----------------------------------------|


                                   To Coda
  Cm
|-------------------5--8-5----------------|
|-----------------6---------6-------------|
|------------1-5--------------5--1--------|
|---------3------------------------3------|
|----0--3-----------------------------3-0-|
|--1--------------------------------------|
|
|-12---12---12---12---12---12---12---12---|
|-12---12---12---12---12---12---12---12---|
|-13---13---13---13---13---13---13---13---|
|-14---14---14---14---14---14---14---14---|
|-14---14---14---14---14---14---14---14---|
|-12---12---12---12---12---12---12---12---|


|-------------------5--8-5-----------------|
|-----------------6---------6--------------|
|------------1-5--------------5--1---------|
|---------3------------------------3-------|
|----0--3-----------------------------3-0--|
|--1---------------------------------------|
|
|-12---12---12---12---12---12---12---12----|
|-12---12---12---12---12---12---12---12----|
|-13---13---13---13---13---13---13---13----|
|-14---14---14---14---14---14---14---14----|
|-14---14---14---14---14---14---14---14----|
|-12---12---12---12---12---12---12---12----|


  Fm
  Gtr II
                  <
|-----------------1---1---1---1---|-1---1---1---1---1---1---1---1----||
|-----------------1---1---1---1---|-1---1---1---1---1---1---1---1----||
|-----------------1---1---1---1---|-1---1---1---1---1---1---1---1----||
|-----------------3---3---3---3---|-3---3---3---3---3---3---3---3----||
|-----------------3---3---3---3---|-3---3---3---3---3---3---3---3----||
|-----------------1---1---1---1---|-1---1---1---1---1---1---1---1----||
|
| Gtr I
|---------------5-8-5-------------|---------------5-8-5--------------||
|-------------6-------6-----------|-------------6-------6------------||
|---------1-5-----------5-1-------|---------1-5-----------5-1--------||
|-------3-------------------3-----|-------3-------------------3------||
|---0-3-----------------------3-0-|---0-3-----------------------3-0--||
|-1-------------------------------|-1--------------------------------||


  Cm
  Gtr I
|--------------3--8-11-15-11--8-3-----------|
|------------4---------------------4--------|
|---------5--------------------------5------|
|-------5-------------------------------5---|
|----6------------------------------------6-|
|--8----------------------------------------|
|
| Gtr II
|-11-------------11---------------11--------|
|------13--------------13--------------13---|
|-----------12---------------12-------------|
|-------------------------------------------|
|-------------------------------------------|
|-------------------------------------------|


  Bb
|--------------1--6-10-13-10--6-1------------|
|------------3---------------------3---------|
|---------3--------------------------3-------|
|-------3-------------------------------3----|
|----5------------------------------------5--|
|--6-----------------------------------------|
|
|-10-------------10---------------10---------|
|------11--------------11--------------11----|
|-----------10---------------10--------------|
|--------------------------------------------|
|--------------------------------------------|
|--------------------------------------------|


  Fm
|-------------------5--8-5----------------|
|-----------------6---------6-------------|
|------------1-5--------------5--1--------|
|---------3------------------------3------|
|----0--3-----------------------------3-0-|
|--1--------------------------------------|
|
|-13-------------13-------------13--------|
|------13-------------13-------------13---|
|-----------13-------------13-------------|
|-----------------------------------------|
|-----------------------------------------|
|-----------------------------------------|


  Cm
|--------------3--8-11-15-11--8-3------------|
|------------4---------------------4---------|
|---------5--------------------------5-------|
|-------5-------------------------------5----|
|----6------------------------------------6--|
|--8-----------------------------------------|
|
|-11-------------11---------------11---------|
|------13--------------13--------------13----|
|-----------12---------------12--------------|
|--------------------------------------------|
|--------------------------------------------|
|--------------------------------------------|


  Bb
|--------------1--6-10-13-10--6-1-----------|
|------------3---------------------3--------|
|---------3--------------------------3------|
|-------3-------------------------------3---|
|----5------------------------------------5-|
|--6----------------------------------------|
|
|-10-------------10---------------10--------|
|------11--------------11--------------11---|
|-----------10---------------10-------------|
|-------------------------------------------|
|-------------------------------------------|
|-------------------------------------------|


  Fm
|-------------------5--8-5-----------------|
|-----------------6---------6--------------|
|------------1-5--------------5--1---------|
|---------3------------------------3-------|
|----0--3-----------------------------3-0--|
|--1---------------------------------------|
|
|-13-------------13-------------13---------|
|------13-------------13-------------13----|
|-----------13-------------13--------------|
|------------------------------------------|
|------------------------------------------|
|------------------------------------------|


  Cm
|--------------3--8-11-15-11--8-3-----------|
|------------4---------------------4--------|
|---------5--------------------------5------|
|-------5-------------------------------5---|
|----6------------------------------------6-|
|--8----------------------------------------|
|
|-11---11---11---11----11----11---11---11---|
|-13---13---13---13----13----13---13---13---|
|-12---12---12---12----12----12---12---12---|
|-------------------------------------------|
|-------------------------------------------|
|-------------------------------------------|


|-----------------3--8-11-15-11--8--3-----------||
|--------------4-----------------------4--------||
|-----------5----------------------------5------||
|--------5---------------------------------5----||
|-----6--------------------------------------6--||
|--8--------------------------------------------||
|
|-11-11-11-11-11-11-11-11-11-11-11-11-11--------||
|-13-13-13-13-13-13-13-13-13-13-13-13-13--------||
|-12-12-12-12-12-12-12-12-12-12-12-12-12--------||
|-----------------------------------------------||
|-----------------------------------------------||
|-----------------------------------------------||


  Cm                                   Bb
  Gtr III
|------------------------------------|------------------------------------|
|------------------------------------|------------------------------------|
|-5---5---5---5-----5----5---5---5-5-|-7---7---7---7-----7----7---7---7-7-|
|------------------------------------|------------------------------------|
|-3---3---3---3-----3----3---3---3-3-|-5---5---5---5-----5----5---5---5-5-|
|------------------------------------|------------------------------------|
|
| Gtr I
|-----------3-8-11-15-11-8-3---------|-----------1-6-10-13-10-6-1---------|
|---------4------------------4-------|---------3------------------3-------|
|-------5----------------------5-----|-------3----------------------3-----|
|-----5--------------------------5---|-----3--------------------------3---|
|---6------------------------------6-|---5------------------------------5-|
|-8----------------------------------|-6----------------------------------|


  Fm
|---------------------------------------|
|---------------------------------------|
|-10---10---10---8---8---8---7---7-7----|
|---------------------------------------|
|--8----8----8---6---6---6---5---5-5----|
|---------------------------------------|
|
|------------------5-8-5----------------|
|----------------6-------6--------------|
|------------1-5-----------5-1----------|
|---------3--------------------3--------|
|----0--3------------------------3-0----|
|--1------------------------------------|


  Cm
|------------------------------------|
|------------------------------------|
|-8---8---8---7-----7----7---5---5-5-|
|------------------------------------|
|-6---6---6---5-----5----5---3---3-3-|
|------------------------------------|
|
|-----------3-8-11-15-11-8-3---------|
|---------4------------------4-------|
|-------5----------------------5-----|
|-----5--------------------------5---|
|---6------------------------------6-|
|-8----------------------------------|


  Bb                                   Fm
|------------------------------------|------------------------------------|
|------------------------------------|------------------------------------|
|-7---7---7---5-----5----5---3---3-3-|------------------------------------|
|------------------------------------|-6---6---6---5---5---5---3---3------|
|-5---5---5---3-----3----3---1---1-1-|------------------------------------|
|------------------------------------|-4---4---4---3---3---3---1---1------|
|
|-----------1-6-10-13-10-6-1---------|---------------5-8-5----------------|
|---------3------------------3-------|-------------6-------6--------------|
|-------3----------------------3-----|---------1-5-----------5-1----------|
|-----3--------------------------3---|-------3-------------------3--------|
|---5------------------------------5-|---0-3-----------------------3-0----|
|-6----------------------------------|-1----------------------------------|


                                                              D.S. al Coda
  Cm
|------------------------------------|-------------------------------------||
|------------------------------------|-------------------------------------||
|-5---5-5-5---5--5--5----5-5-5---5-5-|-5---5-5-5---5--5--5----5-5-5---5-5--||
|------------------------------------|-------------------------------------||
|-3---3-3-3---3--3--3----3-3-3---3-3-|-3---3-3-3---3--3--3----3-3-3---3-3--||
|------------------------------------|-------------------------------------||
|
|-----------3-8-11-15-11-8-3---------|-----------3-8-11-15-11-8-3----------||
|---------4------------------4-------|---------4------------------4--------||
|-------5----------------------5-----|-------5----------------------5------||
|-----5--------------------------5---|-----5--------------------------5----||
|---6------------------------------6-|---6------------------------------6--||
|-8----------------------------------|-8-----------------------------------||


  &
  E
|-12---12---12---12----12----12---12---12---||
|-12---12---12---12----12----12---12---12---||
|-13---13---13---13----13----13---13---13---||
|-14---14---14---14----14----14---14---14---||
|-14---14---14---14----14----14---14---14---||
|-12---12---12---12----12----12---12---12---||
|
|--------------3--8-11-15-11--8-3-----------||
|------------4---------------------4--------||
|---------5--------------------------5------||
|-------5-------------------------------5---||
|----6------------------------------------6-||
|--8----------------------------------------||


  Fm
|-1--------------------------------|
|-1--------------------------------|
|-1--------------------------------|
|-3--------------------------------|
|-3--------------------------------|
|-1--------------------------------|
|
|---------------5-8-5--------------|
|-------------6-------6------------|
|---------1-5-----------5-1--------|
|-------3-------------------3------|
|---0-3-----------------------3-0--|
|-1--------------------------------|


  Gtr I
|---------------5-8-5-------------|---------------5-8-5-------------|
|-------------6-------6-----------|-------------6-------6-----------|
|---------1-5-----------5-1-------|---------1-5-----------5-1-------|
|-------3-------------------3-----|-------3-------------------3-----|
|---0-3-----------------------3-0-|---0-3-----------------------3-0-|
|-1-------------------------------|-1-------------------------------|


|---------------5-8-5----------------||
|-------------6-------6--------------||
|---------1-5-----------5-1----------||
|-------3-------------------3--------||
|---0-3-----------------------3-0----||
|-1----------------------------------||


    Cm                                   Bb
    Gtr I
||------------3-8-11-15-11-8-3---------|-----------1-6-10-13-10-6-1---------|
||o---------4------------------4-------|---------3------------------3-------|
||--------5----------------------5-----|-------3----------------------3-----|
||------5--------------------------5---|-----3--------------------------3---|
||o---6------------------------------6-|---5------------------------------5-|
||--8----------------------------------|-6----------------------------------|


  Fm                                Cm
|---------------5-8-5-------------|-----------3-8-11-15-11-8-3----------|
|-------------6-------6-----------|---------4------------------4--------|
|---------1-5-----------5-1-------|-------5----------------------5------|
|-------3-------------------3-----|-----5--------------------------5----|
|---0-3-----------------------3-0-|---6------------------------------6--|
|-1-------------------------------|-8-----------------------------------|


  Bb                                   Fm
|-----------1-6-10-13-10-6-1---------|---------------5-8-5--------------|
|---------3------------------3-------|-------------6-------6------------|
|-------3----------------------3-----|---------1-5-----------5-1--------|
|-----3--------------------------3---|-------3-------------------3------|
|---5------------------------------5-|---0-3-----------------------3-0--|
|-6----------------------------------|-1--------------------------------|


  Cm
|-----------3-8-11-15-11-8-3---------|-----------3-8-11-15-11-8-3-----------||
|---------4------------------4-------|---------4------------------4--------o||
|-------5----------------------5-----|-------5----------------------5-------||
|-----5--------------------------5---|-----5--------------------------5-----||
|---6------------------------------6-|---6------------------------------6--o||
|-8----------------------------------|-8------------------------------------||





Comments


Popular Muse tabs & chords
I Belong To You Bass Tabs
Inyourworld Bass Tabs
Twin 1 Bass Tabs
Fury Chords
Guiding Light Chords
Apocalypse Please 1 Tabs
Falling With The Crowd Tabs
In Your World Tabs
In Your World Studio Ver Tabs
Invincible Ukulele


Song lyrics



↑ Back to top | Tablatures and chords are parodies/interpretations of the original songs. You may use it for private study, scholarship, research or language learning purposes only
© 2014 AZChords.com Contact us | Privacy policy | DMCA | Add/correct tabs | Request tabs | Top 50 tabs