>
 >
Bliss 7

Bliss 7 Bass Tabs

Muse - Bliss 7 chords, tabs, tablatures, lyrics

Guitar lessons | Add/correct | Request | Top 50 tabs Artists:  A B C D E F G H I J K L M N O P Q R S T U V W X Y Z 0-9

Bliss 7 Bass Tabs – Muse

CD, Sheet music, Poster

Do you like Bliss 7? Share with your friends now
Bass TabsBass Tabs v2Bass Tabs v3Bass Tabs v4Bass Tabs v5Bass Tabs v6Bass Tabs v7ChordsChords v2Chords v3Chords v4Drum TabsTabsTabs v2Tabs v3Tabs v4Tabs v5UkuleleUkulele v2
-----------------------------------------------------------------------------
                                BLISS - Muse
-----------------------------------------------------------------------------

Lots of versions already, but this is my interpretation ;)
Quite a few ghost/mute notes in the song.
Play whatever ghost/mute notes you feel like.


TEMPO: 128 (Allegro)
TIME SIGNATURE: 8/4 BUT WITH SYNCOPATION IN MIND!

LEGEND:
| '|' BAR; || - End of song!
|  W  WHOLE NOTE
|  H  HALF NOTE
|  Q  QUARTER NOTE/GRACE NOTE
| '1_' Allows room for slides, hammers, etc. OR notes on fret 10 and above.
|  /  Slide up
|  \  Slide down
|  h  Hammer-on
|  p  Pull-off
|  ~  Vibrato/hold
|  x  Mute note
| [n] Ghost note

INTRO:

(WAIT FOR 8 BARS!)

 |1-+-2-+-3-+-4-+-|1-+-2-+-3-+-4-+-|1-+-2-+-3-+-4-+-|1-+-2-+-3-+-4-+-|

G|W   A   I   T + |W   A   I   T + |W   A   I   T + |W   A   I   T + |
D|W   A   I   T + |W   A   I   T + |W   A   I   T + |W   A   I   T + |
A|W   A   I   T + |W   A   I   T + |W   A   I   T + |W   A   I   T + |
E|W   A   I   T + |W   A   I   T + |W   A   I   T + |W   A   I   T + |


 |1-+-2-+-3-+-4-+-|1-+-2-+-3-+-4-+-|1-+-2-+-3-+-4-+-|1-+-2-+-3-+-4-+-|

G|W   A   I   T + |W   A   I   T + |W   A   I   T + |W   A   I   T + |
D|W   A   I   T + |W   A   I   T + |W   A   I   T + |W   A   I   T + |
A|W   A   I   T + |W   A   I   T + |W   A   I   T + |W   A   I   T + |
E|W   A   I   T + |W   A   I   T + |W   A   I   T + |W   A   I   T + |


 |1_-+-2_-+-3_-+-4_-+-__|1-+-2-+-3-+-4_-+_-|1-+-2-+-3-+-4-+-_|1-+-2-+-_3-+-4_-+_-|

G|----------------------|------------------|-----------------|-------------------|
D|10---10---10---10--13/|-88-8--x-88-10-11-|---------------10|-------10----------|
A|----------------------|------------------|8---8---8---8----|-------------------|
E|----------------------|------------------|-----------------|-88-8-----88-10-11-|


 |1-+-2-+-3-+-4-+-|1-+-2-+-3-+-4-+-|1-+-2-+-3-+-4-+-|1-+-2-+-_3-+-4-+-|

G|----------------|----------------|----------------|-----------------|
D|----------------|-------3--------|----------------|-----------------|
A|----------------|----------------|---------------6|-------10-66--8-9|
E|6---6---6---6/--|-x1-1----11-3-3/|8---8---8---8---|-88-8-x----------|
                           (1-1)


VERSE 1:

     ("Everything...")
 |1_-+-2_-+-3_-+-4_-+-__|1-+-2-+-3-+-4_-+_-|1-+-2-+-3-+-4-+-_|1-+-2-+-_3-+-4_-+_-|

G|----------------------|------------------|-----------------|-------------------|
D|10---10---10---10--13/|-88-8--x-88-10-11-|---------------10|-------10----------|
A|----------------------|------------------|8---8---8---8----|-------------------|
E|----------------------|------------------|-----------------|-88-8-----88-10-11-|


 |1-+-2-+-3-+-4-+-|1-+-2-+-3-+-4-+-|1-+-2-+-3-+-4-+-|1-+-2-+-_3-+-4-+-|

G|----------------|----------------|----------------|-----------------|
D|----------------|-------3--------|----------------|-----------------|
A|----------------|----------------|---------------6|-------10-66--8-9|
E|6---6---6---6/--|-x1-1----11-3-3/|8---8---8---8---|-88-8-x----------|
                             (1-1)


 |1_-+-2_-+-3_-+-4_-+-__|1-+-2-+-3-+-4_-+_-|1-+-2-+-3-+-4-+-_|1-+-2-+-_3-+-4_-+_-|

G|----------------------|------------------|-----------------|-------------------|
D|10---10---10---10--13/|-88-8--x-88-10-11-|---------------10|-------10----------|
A|----------------------|------------------|8---8---8---8----|-------------------|
E|----------------------|------------------|-----------------|-88-8-----88-10-11-|


 |1-+-2-+-3-+-4-+-|1-+-2-+-3-+-4-+-|1-+-2-+-3-+-4-+-|1-+-2-+-_3-+-4-+-|

G|----------------|----------------|----------------|-----------------|
D|----------------|-------3--------|----------------|-----------------|
A|----------------|----------------|---------------6|-------10-66--8-9|
E|6---6---6---6/--|-x1-1----11-3-3/|8---8---8---8---|-88-8-x----------|
                             (1-1)



CHORUS 1:

          ('Give me...')
 |1_-+-2_-+-3_-+-4_-+-|1-+-2-+-3-+-4-+-|1-+-2-+-3-+-4-+-|1-+-2-+-3-+-4-+-|

G|--------------------|----------------|----------------|----------------|
D|10---10---10---10---|7---7---7---7---|5---5---5---5---|5---5---5---5---|
A|--------------------|----------------|----------------|----------------|
E|--------------------|----------------|----------------|----------------|


 |1-+-2-+-3-+-4-+-|1-+-2-+-3-+-4-+-|1-+-2-+-3-+-4-+-|1-+-2-+-3-+-4-+-|

G|----------------|----------------|----------------|----------------|
D|----------------|----------------|----------------|----------------|
A|3-3-3-3-3-3-3-3-|0-0-0-0-0-0-0-0-|----------------|----------------|
E|----------------|----------------|0-0-0-0-0-0-0-0-|0-0-0-0-0-0-0-0-|


('Ooooohhh...')
 |1-+-2-+-3-+-4-+-|1-+-2-+-3-+-4-+-|

G|----------------|----------------|
D|----------------|----------------|
A|----------------|----------------|
E|1~--------1-1-1-|1-1-1-1-1-1-1-1-|



PRE-VERSE 2:

 |1_-+-2_-+-3_-+-4_-+-__|1-+-2-+-3-+-4_-+_-|1-+-2-+-3-+-4-+-_|1-+-2-+-_3-+-4_-+_-|

G|----------------------|------------------|-----------------|-------------------|
D|10---10---10---10--13/|-88-8--x-88-10-11-|---------------10|-------10----------|
A|----------------------|------------------|8---8---8---8----|-------------------|
E|----------------------|------------------|-----------------|-88-8-----88-10-11-|


 |1-+-2-+-3-+-4-+-|1-+-2-+-3-+-4-+-|1-+-2-+-3-+-4-+-|1-+-2-+-_3-+-4-+-|

G|----------------|----------------|----------------|-----------------|
D|----------------|-------3--------|----------------|-----------------|
A|----------------|----------------|---------------6|-------10-66--8-9|
E|6---6---6---6/--|-x1-1----11-3-3/|8---8---8---8---|-88-8-x----------|
                             (1-1)



VERSE 2:


 |1_-+-2_-+-3_-+-4_-+-__|1-+-2-+-3-+-4_-+_-|1-+-2-+-3-+-4-+-_|1-+-2-+-_3-+-4_-+_-|

G|----------------------|------------------|-----------------|-------------------|
D|10---10---10---10--13/|-88-8--x-88-10-11-|---------------10|-------10----------|
A|----------------------|------------------|8---8---8---8----|-------------------|
E|----------------------|------------------|-----------------|-88-8-----88-10-11-|


 |1-+-2-+-3-+-4-+-|1-+-2-+-3-+-4-+-|1-+-2-+-3-+-4-+-|1-+-2-+-_3-+-4-+-|

G|----------------|----------------|----------------|-----------------|
D|----------------|-------3--------|----------------|-----------------|
A|----------------|----------------|---------------6|-------10-66--8-9|
E|6---6---6---6/--|-x1-1----11-3-3/|8---8---8---8---|-88-8-x----------|
                             (1-1)


 |1_-+-2_-+-3_-+-4_-+-__|1-+-2-+-3-+-4_-+_-|1-+-2-+-3-+-4-+-_|1-+-2-+-_3-+-4_-+_-|

G|----------------------|------------------|-----------------|-------------------|
D|10---10---10---10--13/|-88-8--x-88-10-11-|---------------10|-------10----------|
A|----------------------|------------------|8---8---8---8----|-------------------|
E|----------------------|------------------|-----------------|-88-8-----88-10-11-|


 |1-+-2-+-3-+-4-_+_-|1-+-2-+-3-+-4-+-|1-+-2-+-3-+-4-+-|1-+-2-+-_3-+-4-+-|

G|------------------|----------------|----------------|-----------------|
D|------------------|-------3--------|----------------|-----------------|
A|--------------[8/]|----------------|---------------6|-------10-66--8-9|
E|6---6---6---6/----|-x1-1----11-3-3/|8---8---8---8---|-88-8-x----------|
                             (1-1)



CHORUS 2:

          ('Give me...')
 |1_-+-2_-+-3_-+-4_-+-|1-+-2-+-3-+-4-+-|1-+-2-+-3-+-4-+-|1-+-2-+-3-+-4-+-|

G|--------------------|----------------|----------------|----------------|
D|10---10---10---10---|7---7---7---7---|5---5---5---5---|5---5---5---5---|
A|--------------------|----------------|----------------|----------------|
E|--------------------|----------------|----------------|----------------|



 |1-+-2-+-3-+-4-+-|1-+-2-+-3-+-4-+-|1-+-2-+-3-+-4-+-|1-+-2-+-3-+-4-+-|

G|----------------|----------------|----------------|----------------|
D|----------------|----------------|----------------|----------------|
A|3-3-3-3-3-3-3-3-|0-0-0-0-0-0-0-0-|----------------|----------------|
E|----------------|----------------|0-0-0-0-0-0-0-0-|0-0-0-0-0-0-0-0-|


 |1_-+_-2_-+_-3_-+_-4_-+_-|1-+-2-+-3-+-4-+-|1-+-2-+-3-+-4-+-|1-+-2-+-3-+-4-+-|

G|------------------------|----------------|----------------|----------------|
D|10-10-10-10-10-10-10-10-|7-7-7-7-7-7-7-7-|5-5-5-5-5-5-5-5-|5-5-5-5-5-5-5-5-|
A|------------------------|----------------|----------------|----------------|
E|------------------------|----------------|----------------|----------------|


 |1-+-2-+-3-+-4-+-|1-+-2-+-3-+-4-+-|1-+-2-+-3-+-4-+-|1-+-2-+-3-+-4-+-|

G|----------------|----------------|----------------|----------------|
D|----------------|----------------|----------------|----------------|
A|3-3-3-3-3-3-3-3-|0-0-0-0-0-0-0-0-|----------------|----------------|
E|----------------|----------------|0-0-0-0-0-0-0-0-|0-0-0-0-0-0-0-0-|


 |1-+-2-+-3-+-4-+-|1-+-2-+-3-+-4-+-|

G|----------------|----------------|
D|----------------|----------------|
A|----------------|----------------|
E|1~--------1-1-1-|1-1-1-1-1-1-1-1/|



BREAK:

 |1_|+-2-+-3-+-4-+-|1-+-2-+-3-+-4-+-|1-+-2-+-3-+-4-+-|1-+-2-+-3-+-4-+-|
 (SYNTH)
G|--|W A   I   T + |W   A   I   T + |W   A   I   T + |W   A   I   T + |
D|--|W A   I   T + |W   A   I   T + |W   A   I   T + |W   A   I   T + |
A|--|W A   I   T + |W   A   I   T + |W   A   I   T + |W   A   I   T + |
E|8p|W A   I   T + |W   A   I   T + |W   A   I   T + |W   A   I   T + |


 |1-+-2-+-3-+-4-+-|1-+-2-+-3-+-4-+-|1-+-2-+-3-+-4-+-|1-+-2-+-3-+-4-+-|

G|W   A   I   T + |W   A   I   T + |W   A   I   T + |W   A   I   T + |
D|W   A   I   T + |W   A   I   T + |W   A   I   T + |W   A   I   T + |
A|W   A   I   T + |W   A   I   T + |W   A   I   T + |W   A   I   T + |
E|W   A   I   T + |W   A   I   T + |W   A   I   T + |W   A   I   T + |



BRIDGE:

 |1_-+_-2_-+_-3_-+_-4_-+_-|1-+-2-+-3-+-4-+-|1-+-2-+-3-+-4-+-|1-+-2-+-3-+-4-+-|

G|------------------------|----------------|----------------|----------------|
D|10-10-10-10-10-10-10-10-|8-8-8-8-8-8-8-8-|----------------|----------------|
A|------------------------|----------------|8-8-8-8-8-8-8-8-|----------------|
E|------------------------|----------------|----------------|8-8-8-8-8-8-8-8-|


 |1-+-2-+-3-+-4-+-|1-+-2-+-3-+-4-+-|1-+-2-+-3-+-4-+-|1-+-2-+-3-+-4-+-|

G|----------------|----------------|----------------|----------------|
D|8-8-8-8-8-8-8-8-|----------------|----------------|----------------|
A|----------------|8-8-8-8-8-8-8-8-|----------------|----------------|
E|----------------|----------------|8-8-8-8-8-8-8-8-|8-8-8-8-8-8-8-8-|



CHORUS 3:

 |1_-+_-2_-+-3_-+_-4_-+_-|1-+-2-+-3-+-4-+-|1-+-2-+-3-+-4-+-|1-+-2-+-3-+-4-+-|

G|-----------------------|----------------|----------------|----------------|
D|10-10-10---10-10-10-10-|7-7-7---7-7-7-7-|5-5-5---5-5-5-5-|5-5-5---5-5-5-5-|
A|-----------------------|----------------|----------------|----------------|
E|-----------------------|----------------|----------------|----------------|


 |1-+-2-+-3-+-4-+-|1-+-2-+-3-+-4-+-|1-+-2-+-3-+-4-+-|1-+-2-+-3-+-4-+-|

G|----------------|----------------|----------------|----------------|
D|----------------|----------------|----------------|----------------|
A|3-3-3---3-3-3-3-|0-0-0---0-0-0-0-|----------------|----------------|
E|----------------|----------------|0-0-0---0-0-0-0-|0-0-0---0-0-0-0-|


 |1_-+_-2_-+_-3_-+_-4_-+_-|1-+-2-+-3-+-4-+-|1-+-2-+-3-+-4-+-|1-+-2-+-3-+-4-+-|

G|------------------------|----------------|----------------|----------------|
D|10-10-10-10-10-10-10-10-|7-7-7-7-7-7-7-7-|5-5-5-5-5-5-5-5-|5-5-5-5-5-5-5-5-|
A|------------------------|----------------|----------------|----------------|
E|------------------------|----------------|----------------|----------------|


 |1-+-2-+-3-+-4-+-|1-+-2-+-3-+-4-+-|1-+-2-+-3-+-4-+-|1-+-2-+-3-+-4-+-|

G|----------------|----------------|----------------|----------------|
D|----------------|----------------|----------------|----------------|
A|3-3-3-3-3-3-3-3-|0-0-0-0-0-0-0-0-|----------------|----------------|
E|----------------|----------------|0-0-0-0-0-0-0-0-|0-0-0-0-0-0-0-0-|


 |1-+-2-+-3-+-4-+-|1-+-2-+-3-+-4-+-||

G|----------------|----------------||
D|----------------|----------------||
A|----------------|----------------||
E|1~--------------|----------------||

(SYNTH OUTRO)





Comments


Popular Muse tabs & chords
Assassin 2 Bass Tabs
Host 2 Bass Tabs
Liquid State 3 Bass Tabs
Apocalypse Please 2 Tabs
Blackout Tabs
Con-science 2 Tabs
Dark Shines 2 Tabs
Deadstar Reading 2002 Tabs
Neutron Star Collision 1 Tabs
Neutron Star Collision 2 Tabs


Song lyrics



↑ Back to top | Tablatures and chords are parodies/interpretations of the original songs. You may use it for private study, scholarship, research or language learning purposes only
© 2014 AZChords.com Contact us | Privacy policy | DMCA | Add/correct tabs | Request tabs | Top 50 tabs