» » »

Bliss Bass tabs (ver.4)

Artists:  A B C D E F G H I J K L M N O P Q R S T U V W X Y Z # 

Bliss Bass tabs (ver.4)

Muse
Rating:
0/5 (0 votes)

Hard to play? Try these video lessons and learn fast.
                ----------------------------------------------------------------------------
                                BLISS - Muse
----------------------------------------------------------------------------

comments:ITS PROBABLY WRONG, BUT HEY, YOUR THE ONES WHO HAVE TO TELL ME

INTRO
|----------------------------------------------------------------------|
|----------------------------------------------------------------------|
|--3--3--3--3--x-x----x-x--1--1--x-x-x-x-1--1--x-x---------------------|
|-----------------------------------------------------1--1--1--1--x-x--|

|--------------------------------------------------------------------------|
|--------------------------------------------------------------------------|
|-x-x-3--3--x-x-x-x-3--3--x--1--1--1--1--x-x-------------------------------|
|---------------------------------------------x-x-1--1--x-x-x-x-1--1--x-x--|

|------------------------------------------------|
|------------------------------------------------|
|--3--3--3--3--x-x----x-x-3--3--x-x-x-x-3--3--3--|
|------------------------------------------------|

|--------------------------15------------------15-----------------------|
|--10----10------10----10/----------------------------------------------|
|--------------------------------13--13---13---------13--13---14----15--|
|-----------------------------------------------------------------------|

|----------------------------------------------------------|
|-----------------------10---------------10----------------|
|--8----8----8-----8--------------------------------5---6--|
|-----------------------------8--8---8--------8--8---------|

|---------------------------------------------------------------|
|-----------------------3----------------3----------------------|
|----------------------------------------------------1----2-----|
|--6-----6-----6-------------1--1---1---------1--1--------------|

|---------------------------------------------------------|
|--------------------------------------10----------8---9--|
|--3----3----3--------6----------------------6--6---------|
|--------------------------8--8---8-----------------------| 

|----------------------------15-------------------15--------------------|
|--10----10-----10----10/-----------------------------------------------|
|----------------------------------13--13---13--------13--13---14---15--|
|-----------------------------------------------------------------------|

|-----------------------------------------------------------------|
|-----------------------10------------------10--------------------|
|--8----8----8----8----------------------------------------5---6--|
|-----------------------------8---8----8-----------8---8----------|

|-----------------------------------------------------------|
|---------------------3------------------3------------------|
|----------------------------------------------------1---2--|
|--6----6----6---------------1--1---1---------1--1----------|

|---------------------------------------------------------------------|
|-----------------------------------------------10------------8----9--|
|--3--------3--------3--------6-----------------------6--6------------|
|----------------------------------8--8----8--------------------------|


CHORUS
|--------------------------------------------------------|
|--------------------------------------------------------|
|--3---3---3---3----0---0---0---0------------------------|
|------------------------------------3---3---3---3--3-3--|

|---------------------------------------------------------------------|
|---------------------------------------------------------------------|
|-------------------3--3--3--3--3--3--3--3----0--0--0--0--0--0--0--0--|
|--3---3---3---3------------------------------------------------------|

|--------------------------------------------------------------------------|
|--------------------------------------------------------------------------|
|--------------------------------------------------------------------------|
|--0--0--0--0--0--0--0--0----0--0--0--0--0--0--0--0------------1--1--1--1--|

|------------------------------------------------------------------------|
|------------------------------------------------------------------------|
|------------------------------------------------3--3--3--3--3--3--3--3--|
|--1--1--1--1--1--1--1--1------0---0---0---0-----------------------------|

|--------------------------------------------------------------------------|
|--------------------------------------------------------------------------|
|-0--0--0--0--0--0--0--0---------------------------------------------------|
|--------------------------3--3--3--3--3--3--3--3---3--3--3--3--3--3--3--3-|

|--------------------------------------------------------------------------|
|--------------------------------------------------------------------------|
|-3--3--3--3--3--3--3--3---0--0--0--0--0--0--0--0--------------------------|
|---------------------------------------------------0--0--0--0--0--0--0--0-|

|-------------------------------------------------------------------------|
|-------------------------------------------------------------------------|
|-------------------------------------------------------------------------|
|-0--0--0--0--0--0--0--0------------1--1--1--1----1--1--1--1--1--1--1--1--|

BRIDGE
----------------------------------------------------------------------------
----------------------------------------------------------------------------
-3--3--3-3--3--3-3-3--5--5--5--5--5--5--5--5-5--8---8---8--6--6--6--5--5--5-
----------------------------------------------------------------------------

|--------------------------------------------------------------------------|
|--------------------------------------------------------------------------|
|-6--6--6--5--5--5--3--3-3--5--5--5--3--3--3--1--1-------------------------|
|---------------------------------------------------4--4--4--3--3--3--1--1-|

|---------------------------------------------------------------|
|---------------------------------------------------------------|
|--3--3-3-3--3-3-3--3-3-3--3-3----3--3-3-3--3-3-3--3-3-3--3-3---|
|---------------------------------------------------------------|

|-------------------------------------------|
|-------------------------------------------|
|-------------------------------------------|
|--0--0--0--0--0--0--0--0----1--------------|

ITS PROBABLY WRONG, BUT HEY, YOUR THE ONES WHO HAVE TO TELL ME
            
Hard to play? Try these video lessons and learn fast. | Correct




comments powered by Disqus
↑ Back to top | Tablatures and chords are parodies/interpretations of the original songs. You may use it for private study, scholarship, research or language learning purposes only