» » »

Big Freeze Bass tabs (ver.1)

Artists:  A B C D E F G H I J K L M N O P Q R S T U V W X Y Z # 

Big Freeze Bass tabs (ver.1)

Muse
Rating:
0/5 (0 votes)

Hard to play? Try these video lessons and learn fast.
                Band: Muse
Bassist: Chris Wolstenholme
Tuning: Standard

Intro:

G|----------------------------|13-131313-131313-131313-1313|
D|13-131313-131313-131313-1313|----------------------------|
A|----------------------------|----------------------------|
E|----------------------------|----------------------------|

G|----------------------------|----------------------------|
D|13-131313-131313-131313-1313|----------------------------|
A|----------------------------|13-131313-131313-131313-1313|
E|----------------------------|----------------------------| x2

G|----------------------------|----------------------------|
D|13-131313-131313-131313-1313|13-131313-131313-131313-1313|
A|----------------------------|----------------------------|
E|----------------------------|----------------------------|

G|----------------------------|12-121212-121212-121212-1212|
D|13-131313-131313-131313-1313|----------------------------|
A|----------------------------|----------------------------|
E|----------------------------|----------------------------|

G|13-131313-131313-131313-1313|13-131313-131313-131313-1313|
D|----------------------------|----------------------------|
A|----------------------------|----------------------------|
E|----------------------------|----------------------------|
 
G|----------------------------|12-121212-121212-121212-1212|
D|13-131313-131313-131313-1313|----------------------------|
A|----------------------------|----------------------------|
E|----------------------------|----------------------------|

G|13-131313-131313-131313-1313|14-141414-141414-141414-1414|
D|----------------------------|----------------------------|
A|----------------------------|----------------------------|
E|----------------------------|----------------------------|

G|15-151515-151515-151515-1515|----------------------------|
D|----------------------------|----------------------------|
A|----------------------------|13-131313-131313-131313-1313|
E|----------------------------|----------------------------|

G|----------------------------|----------------------------|
D|13-131313-131313-131313-1313|13-131313-131313-13---------|
A|----------------------------|---------------------13\----|
E|----------------------------|----------------------------|

Verse:

G|----------------|----------------|----------------|----------------|
D|----------------|----------------|----------------|----------------|
A|6666--6666--6666|----------------|6666--6666--6666|6666--6655--5555|
E|----------------|6666--6666--6666|----------------|----------------|

G|----------------|----------------|----------------|----------------|
D|----------------|----------------|----------------|----------------|
A|3333--3333--3333|----------------|6666--6666--6666|6666--6666--6\--|
E|----------------|4444--4444--4444|----------------|----------------|

G|----------------|----------------|----------------|----------------|
D|----------------|----------------|----------------|----------------|
A|6-6-6-6-6-6-6-6-|----------------|----------------|----------------|
E|----------------|3-3-3-3-3-3-3-3-|4-4-4-4-4-4-4-4-|5-5-5-5-5-5-5-5-|

G|----------------|----------------|----------------|----------------|
D|----------------|----------------|----------------|----------------|
A|----------------|----------------|6-6-6-6-6-6-6-6-|6666--6666--6\--|
E|6-6-6-6-6-6-6-6-|6-6-6-6-6-6-6-6-|----------------|----------------|

Chorus:

G|----------------|----------------|----------------|----------------|
D|----------------|----------------|----------------|----------------|
A|3--3-------3--3-|----------------|----------------|6--6-------6--6-|
E|----------------|3--3-------3--3-|4--4-------4--4-|----------------|

G|----------------|----------------|----------------|----------------|
D|----------------|----------------|----------------|----------------|
A|3--3-------3--3-|----------------|----------------|----------------|
E|----------------|3--3-------3--3-|4--4-------4--4-|6--6-------6--6-|


G|----------------------------|----------------------------|
D|13-131313-131313-131313-1313|----------------------------|
A|----------------------------|13-131313-131313-131313-1313|
E|----------------------------|----------------------------|

G|----------------------------|----------------------------|
D|13-131313-131313-131313-1313|13-131313-131313-131313-1313|
A|----------------------------|----------------------------|
E|----------------------------|----------------------------|

G|----------------------------|12-121212-121212-121212-1212|
D|13-131313-131313-131313-1313|----------------------------|
A|----------------------------|----------------------------|
E|----------------------------|----------------------------|

G|13-131313-131313-131313-1313|13-131313-131313-131313-1313|
D|----------------------------|----------------------------|
A|----------------------------|----------------------------|
E|----------------------------|----------------------------|
 
G|----------------------------|12-121212-121212-121212-1212|
D|13-131313-131313-131313-1313|----------------------------|
A|----------------------------|----------------------------|
E|----------------------------|----------------------------|

G|13-131313-131313-131313-1313|14-141414-141414-141414-1414|
D|----------------------------|----------------------------|
A|----------------------------|----------------------------|
E|----------------------------|----------------------------|

G|15-151515-151515-151515-1515|----------------------------|
D|----------------------------|----------------------------|
A|----------------------------|13-131313-131313-131313-1313|
E|----------------------------|----------------------------|

G|----------------------------|----------------------------|
D|13-131313-131313-131313-1313|13-131313-131313-13---------|
A|----------------------------|---------------------13\----|
E|----------------------------|----------------------------|

Verse:

G|----------------|----------------|----------------|----------------|
D|----------------|----------------|----------------|----------------|
A|6666--6666--6666|----------------|6666--6666--6666|6666--6655--5555|
E|----------------|6666--6666--6666|----------------|----------------|

G|----------------|----------------|----------------|----------------|
D|----------------|----------------|----------------|----------------|
A|3333--3333--3333|----------------|6666--6666--6666|6666--6666--6\--|
E|----------------|4444--4444--4444|----------------|----------------|

G|----------------|----------------|----------------|----------------|
D|----------------|----------------|----------------|----------------|
A|6-6-6-6-6-6-6-6-|----------------|----------------|----------------|
E|----------------|3-3-3-3-3-3-3-3-|4-4-4-4-4-4-4-4-|5-5-5-5-5-5-5-5-|

G|----------------|----------------|----------------|----------------|
D|----------------|----------------|----------------|----------------|
A|----------------|----------------|6-6-6-6-6-6-6-6-|6666--6666--6\--|
E|6-6-6-6-6-6-6-6-|6-6-6-6-6-6-6-6-|----------------|----------------|

Chorus:

G|----------------|----------------|----------------|----------------|
D|----------------|----------------|----------------|----------------|
A|3--3-------3--3-|----------------|----------------|6--6-------6--6-|
E|----------------|3--3-------3--3-|4--4-------4--4-|----------------|

G|----------------|----------------|----------------|----------------|
D|----------------|----------------|----------------|----------------|
A|3--3-------3--3-|----------------|----------------|----------------|
E|----------------|3--3-------3--3-|4--4-------4--4-|6--6-------6--6-|


G|----------------------------|13-131313-131313-131313-1313|
D|13-131313-131313-131313-1313|----------------------------|
A|----------------------------|----------------------------|
E|----------------------------|----------------------------|

G|----------------------------|----------------------------|
D|13-131313-131313-131313-1313|----------------------------|
A|----------------------------|13-131313-131313\-----------| 
E|----------------------------|----------------------------|

Verse:

G|----------------|----------------|----------------|----------------|
D|----------------|----------------|----------------|----------------|
A|6666--6666--6666|----------------|6666--6666--6666|6666--6655--5555|
E|----------------|6666--6666--6666|----------------|----------------|

G|----------------|----------------|----------------|----------------|
D|----------------|----------------|----------------|----------------|
A|3333--3333--3333|----------------|6666--6666--6666|6666--6666--6\--|
E|----------------|4444--4444--4444|----------------|----------------|

G|----------------|----------------|----------------|----------------|
D|----------------|----------------|----------------|----------------|
A|6-6-6-6-6-6-6-6-|----------------|----------------|----------------|
E|----------------|3-3-3-3-3-3-3-3-|4-4-4-4-4-4-4-4-|5-5-5-5-5-5-5-5-|

G|----------------|----------------|----------------|----------------|
D|----------------|----------------|----------------|----------------|
A|----------------|----------------|6-6-6-6-6-6-6-6-|6666--6666--6\--|
E|6-6-6-6-6-6-6-6-|6-6-6-6-6-6-6-6-|----------------|----------------|

Guitar Solo and Chorus:

G|----------------|----------------|----------------|----------------|
D|----------------|----------------|----------------|----------------|
A|3--3-------3--3-|----------------|----------------|6--6-------6--6-|
E|----------------|3--3-------3--3-|4--4-------4--4-|----------------| x3

G|----------------|----------------|----------------|----------------|
D|----------------|----------------|----------------|----------------|
A|3--3-------3--3-|----------------|----------------|----------------|
E|----------------|3--3-------3--3-|4--4-------4--4-|6--6-------6--6-|

Ending:

G|----------------|----------------|----------------|----------------|
D|----------------|8~------8~------|----------------|8~------8~------|
A|6~------6~------|----------------|6~------6~------|----------------|
E|----------------|----------------|----------------|----------------|

G|----------------|----------------|----------------|----------------|
D|----------------|8~------8~------|----------------|8~------8~------|
A|6~------6~------|----------------|6~------6~------|----------------|
E|----------------|----------------|----------------|----------------|

G|----------------|
D|----------------|
A|6~--------------|
E|----------------|

/  slide up
\  slide down
h  hammer-on
p  pull-off
~  let ring
            
Hard to play? Try these video lessons and learn fast. | Correct




comments powered by Disqus
↑ Back to top | Tablatures and chords are parodies/interpretations of the original songs. You may use it for private study, scholarship, research or language learning purposes only