>
 >
Big Freeze 2

Big Freeze 2 Bass Tabs

Muse - Big Freeze 2 chords, tabs, tablatures, lyrics

Guitar lessons | Add/correct | Request | Top 50 tabs Artists:  A B C D E F G H I J K L M N O P Q R S T U V W X Y Z 0-9

Big Freeze 2 Bass Tabs – Muse

CD, Sheet music, Poster

Do you like Big Freeze 2? Share with your friends now
Bass TabsBass Tabs v2ChordsChords v2TabsUkulele
                                  Big Freeze                                    


                                                                            Muse



F#||-------|-------|-------|-------|-------|-------|-------|-------|-------|
C#||-------|-------|-------|-------|-------|-------|-------|-------|-------|
G#||-------|-------|-------|-------|-------|-------|-------|-------|-------|
D#||-------|-------|-------|-------|-------|-------|-------|-------|-------|


-------|-------|-------|-------|-------|-------|-------|-------|-------|-------|
-------|-------|-------|-------|-------|-------|-------|-------|-------|-------|
-------|-------|-------|-------|-------|-------|-------|-------|-------|-------|
-------|-------|-------|-------|-------|-------|-------|-------|-------|-------|


  H.            Q        S S S S E  S S S S E  S S S S  
----------------------|--------------------------------|
----------------------|--------------------------------|
---------------14\----|--7-7-7-7----7-7-7-7----7-7-7-7-|
----------------------|--------------------------------|


  S S S S E  S S S S E  S S S S    S S S S E  S S S S E  S S S S  
--------------------------------|--------------------------------|
--------------------------------|--------------------------------|
--------------------------------|--7-7-7-7----7-7-7-7----7-7-7-7-|
--7-7-7-7----7-7-7-7----7-7-7-7-|--------------------------------|


  S S S S E  S S S S E  S S S S    S S S S E  S S S S E  S S S S  
--------------------------------|--------------------------------|
--------------------------------|--------------------------------|
--7-7-7-7----7-7-6-6----6-6-6-6-|--4-4-4-4----4-4-4-4----4-4-4-4-|
--------------------------------|--------------------------------|


  S S S S E  S S S S E  S S S S    S S S S E  S S S S E  S S S S  
--------------------------------|--------------------------------|
--------------------------------|--------------------------------|
--------------------------------|--7-7-7-7----7-7-7-7----7-7-7-7-|
--5-5-5-5----5-5-5-5----5-5-5-5-|--------------------------------|


  S S S S E  S S S S E  Q        E  E  E  E  E  E  E  E   
------------------------------|--------------------------|
------------------------------|--------------------------|
--7-7-7-7----7-7-7-7----7\----|--7--7--7--7--7--7--7--7--|
------------------------------|--------------------------|


  E  E  E  E  E  E  E  E     E  E  E  E  E  E  E  E   
--------------------------|--------------------------|
--------------------------|--------------------------|
--------------------------|--------------------------|
--4--4--4--4--4--4--4--4--|--5--5--5--5--5--5--5--5--|


  E  E  E  E  E  E  E  E     E  E  E  E  E  E  E  E   
--------------------------|--------------------------|
--------------------------|--------------------------|
--------------------------|--------------------------|
--6--6--6--6--6--6--6--6--|--7--7--7--7--7--7--7--7--|


  E  E  E  E  E  E  E  E     E  E  E  E  E  E  E  E   
--------------------------|--------------------------|
--------------------------|--------------------------|
--------------------------|--7--7--7--7--7--7--7--7--|
--7--7--7--7--7--7--7--7--|--------------------------|


  S S S S E  S S S S S S Q        E  E  Q.     E  E  E   
-------------------------------|------------------------|
-------------------------------|------------------------|
--7-7-7-7----7-7-7-7---0-7\----|------------------------|
-------------------------------|--4--4---------4-----4--|


  E  E  Q.     E  E  E     E  E  Q.     E  E  E     E  E  Q.     E  E  E   
------------------------|------------------------|------------------------|
------------------------|------------------------|------------------------|
------------------------|------------------------|------------------------|
--4--4---------4-----4--|--5--5---------5-----5--|--0--0---------0-----0--|


  E  E  Q.     E  E  E     E  E  Q.     E  E  E     E  E  Q.     E  E  E   
------------------------|------------------------|------------------------|
------------------------|------------------------|------------------------|
------------------------|------------------------|------------------------|
--4--4---------4-----4--|--4--4---------4-----4--|--5--5---------5-----5--|


  E  E  Q.     E  E  E                                                         
------------------------|-----|-----|-----|-----|-----|-----|-----|-----|-----|
------------------------|-----|-----|-----|-----|-----|-----|-----|-----|-----|
------------------------|-----|-----|-----|-----|-----|-----|-----|-----|-----|
--7--7---------7-----7--|-----|-----|-----|-----|-----|-----|-----|-----|-----|


                                      H.            Q      
-----|-----|-----|-----|-----|-----|----------------------|
-----|-----|-----|-----|-----|-----|----------------------|
-----|-----|-----|-----|-----|-----|---------------14\----|
-----|-----|-----|-----|-----|-----|----------------------|


  S S S S E  S S S S E  S S S S    S S S S E  S S S S E  S S S S  
--------------------------------|--------------------------------|
--------------------------------|--------------------------------|
--7-7-7-7----7-7-7-7----7-7-7-7-|--------------------------------|
--------------------------------|--7-7-7-7----7-7-7-7----7-7-7-7-|


  S S S S E  S S S S E  S S S S    S S S S E  S S S S E  S S S S  
--------------------------------|--------------------------------|
--------------------------------|--------------------------------|
--7-7-7-7----7-7-7-7----7-7-7-7-|--7-7-7-7----7-7-6-6----6-6-6-6-|
--------------------------------|--------------------------------|


  S S S S E  S S S S E  S S S S    S S S S E  S S S S E  S S S S  
--------------------------------|--------------------------------|
--------------------------------|--------------------------------|
--4-4-4-4----4-4-4-4----4-4-4-4-|--------------------------------|
--------------------------------|--5-5-5-5----5-5-5-5----5-5-5-5-|


  S S S S E  S S S S E  S S S S    S S S S E  S S S S E  Q      
--------------------------------|------------------------------|
--------------------------------|------------------------------|
--7-7-7-7----7-7-7-7----7-7-7-7-|--7-7-7-7----7-7-7-7----7\----|
--------------------------------|------------------------------|


  E  E  E  E  E  E  E  E     E  E  E  E  E  E  E  E   
--------------------------|--------------------------|
--------------------------|--------------------------|
--7--7--7--7--7--7--7--7--|--------------------------|
--------------------------|--4--4--4--4--4--4--4--4--|


  E  E  E  E  E  E  E  E     E  E  E  E  E  E  E  E   
--------------------------|--------------------------|
--------------------------|--------------------------|
--------------------------|--------------------------|
--5--5--5--5--5--5--5--5--|--6--6--6--6--6--6--6--6--|


  E  E  E  E  E  E  E  E     E  E  E  E  E  E  E  E   
--------------------------|--------------------------|
--------------------------|--------------------------|
--------------------------|--------------------------|
--7--7--7--7--7--7--7--7--|--7--7--7--7--7--7--7--7--|


  E  E  E  E  E  E  E  E     S S S S E  S S S S S S Q      
--------------------------|-------------------------------|
--------------------------|-------------------------------|
--7--7--7--7--7--7--7--7--|--7-7-7-7----7-7-7-7---0-7\----|
--------------------------|-------------------------------|


  E  E  Q.     E  E  E     E  E  Q.     E  E  E     E  E  Q.     E  E  E   
------------------------|------------------------|------------------------|
------------------------|------------------------|------------------------|
------------------------|------------------------|------------------------|
--4--4---------4-----4--|--4--4---------4-----4--|--5--5---------5-----5--|


  E  E  Q.     E  E  E     E  E  Q.     E  E  E     E  E  Q.     E  E  E   
------------------------|------------------------|------------------------|
------------------------|------------------------|------------------------|
------------------------|------------------------|------------------------|
--0--0---------0-----0--|--4--4---------4-----4--|--4--4---------4-----4--|


  E  E  Q.     E  E  E     E  E  Q.     E  E  E                           
------------------------|------------------------|-----|-----|-----|-----|
------------------------|------------------------|-----|-----|-----|-----|
------------------------|------------------------|-----|-----|-----|-----|
--5--5---------5-----5--|--7--7---------7-----7--|-----|-----|-----|-----|


  H.            Q        S S S S E  S S S S E  S S S S  
----------------------|--------------------------------|
----------------------|--------------------------------|
---------------14\----|--7-7-7-7----7-7-7-7----7-7-7-7-|
----------------------|--------------------------------|


  S S S S E  S S S S E  S S S S    S S S S E  S S S S E  S S S S  
--------------------------------|--------------------------------|
--------------------------------|--------------------------------|
--------------------------------|--7-7-7-7----7-7-7-7----7-7-7-7-|
--7-7-7-7----7-7-7-7----7-7-7-7-|--------------------------------|


  S S S S E  S S S S E  S S S S    S S S S E  S S S S E  S S S S  
--------------------------------|--------------------------------|
--------------------------------|--------------------------------|
--7-7-7-7----7-7-6-6----6-6-6-6-|--4-4-4-4----4-4-4-4----4-4-4-4-|
--------------------------------|--------------------------------|


  S S S S E  S S S S E  S S S S    S S S S E  S S S S E  S S S S  
--------------------------------|--------------------------------|
--------------------------------|--------------------------------|
--------------------------------|--7-7-7-7----7-7-7-7----7-7-7-7-|
--5-5-5-5----5-5-5-5----5-5-5-5-|--------------------------------|


  S S S S E  S S S S E  Q        E  E  E  E  E  E  E  E   
------------------------------|--------------------------|
------------------------------|--------------------------|
--7-7-7-7----7-7-7-7----7\----|--7--7--7--7--7--7--7--7--|
------------------------------|--------------------------|


  E  E  E  E  E  E  E  E     E  E  E  E  E  E  E  E   
--------------------------|--------------------------|
--------------------------|--------------------------|
--------------------------|--------------------------|
--4--4--4--4--4--4--4--4--|--5--5--5--5--5--5--5--5--|


  E  E  E  E  E  E  E  E     E  E  E  E  E  E  E  E   
--------------------------|--------------------------|
--------------------------|--------------------------|
--------------------------|--------------------------|
--6--6--6--6--6--6--6--6--|--7--7--7--7--7--7--7--7--|


  E  E  E  E  E  E  E  E     E  E  E  E  E  E  E  E   
--------------------------|--------------------------|
--------------------------|--------------------------|
--------------------------|--7--7--7--7--7--7--7--7--|
--7--7--7--7--7--7--7--7--|--------------------------|


  S S S S E  S S S S S S Q        E  E  Q.     E  E  E   
-------------------------------|------------------------|
-------------------------------|------------------------|
--7-7-7-7----7-7-7-7---0-7\----|------------------------|
-------------------------------|--4--4---------4-----4--|


  E  E  Q.     E  E  E     E  E  Q.     E  E  E     E  E  Q.     E  E  E   
------------------------|------------------------|------------------------|
------------------------|------------------------|------------------------|
------------------------|------------------------|------------------------|
--4--4---------4-----4--|--5--5---------5-----5--|--0--0---------0-----0--|


  E  E  Q.     E  E  E     E  E  Q.     E  E  E     E  E  Q.     E  E  E   
------------------------|------------------------|------------------------|
------------------------|------------------------|------------------------|
------------------------|------------------------|------------------------|
--4--4---------4-----4--|--4--4---------4-----4--|--5--5---------5-----5--|


  E  E  Q.     E  E  E     E  E  Q.     E  E  E     E  E  Q.     E  E  E   
------------------------|------------------------|------------------------|
------------------------|------------------------|------------------------|
------------------------|------------------------|------------------------|
--7--7---------7-----7--|--4--4---------4-----4--|--4--4---------4-----4--|


  E  E  Q.     E  E  E     E  E  Q.     E  E  E     E  E  Q.     E  E  E   
------------------------|------------------------|------------------------|
------------------------|------------------------|------------------------|
------------------------|------------------------|------------------------|
--5--5---------5-----5--|--0--0---------0-----0--|--4--4---------4-----4--|


  E  E  Q.     E  E  E     E  E  Q.     E  E  E     E  E  Q.     E  E  E   
------------------------|------------------------|------------------------|
------------------------|------------------------|------------------------|
------------------------|------------------------|------------------------|
--4--4---------4-----4--|--5--5---------5-----5--|--7--7---------7-----7--|


  W                   W                   W                   W                 
-------------------|-------------------|-------------------|-------------------|
-------------------|-------------------|-------------------|-------------------|
-------------------|-------------------|-------------------|-------------------|
--0----------------|--L----------------|--L----------------|--L----------------|


  W                   W                   W                 
-------------------|-------------------|-------------------|
-------------------|-------------------|-------------------|
-------------------|-------------------|-------------------|
--L----------------|--L----------------|--L----------------|


  W                  
-------------------||
-------------------||
-------------------||
--L----------------||




Duration Legend
---------------
W - whole
H - half
Q - quarter
E - 8th
S - 16th
T - 32nd
X - 64th
. - note dotted
|-n-|  - n-tuplets


Tablature Legend
----------------
L - tied note
x - dead note
g - grace note
(n) - ghost note
> - accentuded note
NH - natural harmonic
AH - artificial harmonic
TH - tapped harmonic
SH - semi harmonic
PH - pitch harmonic
h - hammer on
p - pull off
b - bend
br - bendRelease
pb - preBend
pbr - preBendRelease
brb - bendReleaseBend
\n/ - tremolo bar dip
\n - tremolo bar dive
-/n - tremolo bar Release up
/n\ - tremolo bar inverted dip
/n - tremolo bar return
-\n - tremolo bar Release down
S - shift slide
s - legato slide
/ -  slide into from below or out of upwards
\ -  slide into from above or out of downwards
~ - vibrato
W - wide vibrato
tr - trill
TP - tremolo picking
T - tapping
S - slap
P - pop
< - fade in
^ - brush up
v - brush down





Comments


Popular Muse tabs & chords
Fury 3 Bass Tabs
Get A Grip Bass Tabs
In Your World Bass Tabs
Knights Of Cydonia 1 Chords
Cant Take My Eyes Off You 1 Tabs
Fury 3 Tabs
Madness 1 Tabs
Pink Ego Box Tabs
The Small Print 1 Tabs
House Of The Rising Sun Ukulele


Song lyrics



↑ Back to top | Tablatures and chords are parodies/interpretations of the original songs. You may use it for private study, scholarship, research or language learning purposes only
© 2014 AZChords.com Contact us | Privacy policy | DMCA | Add/correct tabs | Request tabs | Top 50 tabs