>
 >
Bedroom Acoustics

Bedroom Acoustics Guitar Tabs

Muse - Bedroom Acoustics chords, tabs, tablatures, lyrics

Guitar lessons | Add/correct | Request | Top 50 tabs Artists:  A B C D E F G H I J K L M N O P Q R S T U V W X Y Z 0-9

Bedroom Acoustics Guitar Tabs – Muse

CD, Sheet music, Poster

Do you like Bedroom Acoustics? Share with your friends now
Tabs

[12] - Harmonics
tr. - tremolo picking

This is my very first tab! I hope it's okay :s
The second verse has a few minor differences - just listen to the song for them.

e|------0-1-3-1-0-------------------------------0---0-1-3-1-0----------------
B|----------------3-1-0-------------------------3-------------3-1-0----------
G|----------------------2-0---------------------1-------------------2-0------
D|--------------------------3-2-0---------------2-----------------------3-2--
A|--------------------------------3-2-0---------2----------------------------
E|-[12]---------------------------------3-1-0---0----------------------------
                                                tr.

e|----------------0---||-----------------------------------------------------
B|----------------3---||--5/7-8-12----------------14-12-11-------------------
G|----------------1---||.----------10-10-10-10-10----------9--9--9--9--9-----
D|----------------2---||.----------12-12-12-12-12----------11-11-11-11-11----
A|-5p3p2----------2---||-----------11-11-11-11-11----------10-10-10-10-10----
E|-------5p3p1-0--0---||--------0-----------------------0--------------------
                  tr.

e|---------------------------------------------------------------------------
B|-7-8-10----------------8-7-------5-7-8-/12-------------------10-12-13------
G|--------8--8--8--8--8--------7-7-6-----------10-10-10-10-10--10------------
D|--------10-10-10-10-10-------5-5-5-----------12-12-12-12-12--11------------
A|--------9--9--9--9--9------------------------11-11-11-11-11--11------------
E|-----0---------------------0---------------0-----------------------0-------

e|---------------------------------------------------------------------------
B|--------------------16-------------17----------17/19-----------------------
G|-12-12-12-11-11-11-----14-14----------14---------------17-17-17-16-16------
D|-10-10-10-10-10-10----(14)---14----------14------------18-18-18-18-18------
A|-13-13-13-13-13-13--------------15----------15---------17-17-17-17-17------
E|--------------------0--------------------------------0---------------------

e|---------------------------------------------------------------------------
B|-17-15-13--------------------12--------------------10-8-7h8p7-5-0----------
G|----------14-14-14-14-14-14-----12-12-12-12-11-11--------------------------
D|----------10-10-10-10-10-10-----13-13-13-13-13-13-----------------5--------
A|-------0--10-10-10-10-10-10-----14-14-14-14-14-14--------------------------
E|-----------------------------7---------------------------------------------

e|---------------------------2-3---------------------------------------------
B|----------------------------------------7-8-7-5-----0-------0-------2------
G|---4-4--------4-4-4-4-4-4--------6-6-6--6-------7-6-------0---0---0---0----
D|---4-4--------5-5-5-5-5-5--------8-8-8--8---------------1-------2-------2/-
A|---6-6h7------7-7-7-7-7-7--------9-9-9----------------2--------------------
E|-2--------2h3------------------2-------------------------------------------

e|-----------------||-----------13-10----0-10-7---0-7-4---0------------------
B|-------------4---||--4-4h5----------12--------9-------6---6-6---0-10-7---5-
G|-4-4-4-4-4-4-4--.||-------------------------------------------7--------8---
D|-4-4-4-4-4-4-4--.||--------------------------------------------------------
A|-2-2-2-2-2-0-2---||--------------------------------------------------------
E|-----------------||--------0-----------------------------------------------

e|-8-5-----11-8----0-14-11----0---16-(random picking)-|----------------------
B|-----7-4------10---------13-------------------------|--5-----7---/8------9-
G|----------------------------------------------------|--6-------------------
D|----------------------------------------------------|-----10---10---\(9)---
A|----------------------------------------------------|--0-------------------
E|------------------------------0---------------------|--5--------------0----

e|------------------------------------------------[5]-----------------------|
B|------------------------5---5---7---------[12]----------------------------|
G|-7-------6------5-------6---5---5-----------------------------------------|
D|---9---9--8---8--7---7--7---7---7-----------------------------------------|
A|-----8------7------6----7---7---7-----------------------------------------|
E|------------------------5---5---5----[12]---------------------------------|
                          tr. tr. tr.

Enjoy! :p





Comments


Popular Muse tabs & chords
Burning Bandits Bass Tabs
Crying Shame Bass Tabs
Screenager 1 Bass Tabs
I Belong To You 1 Chords
Fury Tabs
In Your World Studio Ver Tabs
Invincible 4 Tabs
Invincible 6 Tabs
Knights Of Cydonia Live 1 Tabs
Invincible Ukulele


Song lyrics



↑ Back to top | Tablatures and chords are parodies/interpretations of the original songs. You may use it for private study, scholarship, research or language learning purposes only
© 2014 AZChords.com Contact us | Privacy policy | DMCA | Add/correct tabs | Request tabs | Top 50 tabs