» » »

Muse, Balloonatic Tabs (ver.1)

Artists:  A B C D E F G H I J K L M N O P Q R S T U V W X Y Z # 

Balloonatic Tabs (ver.1)

Muse Tabs
Rating:
5/5 (2 votes)
Balloonatic lessons Tabs too difficult? Try these video lessons and learn fast
                Balloonatic, kind of like an earlier more primitive version of 'twin'. Still a really good song though.

Intro:
e------------------------------------------------------------|
B--11--11--X-X-----------------------------------------------|
G--10--10--X-X--12--12/0-------------------------------------| X 8
D--9---9---X-X--X---X--X---0h8p0-0---------------------------|
A--10--10--X-X--10--10/0-------------------------------------|
E------------------------------------------------------------|

Guitar 2 (optional):
e------------------------------------------------------------|
B------------------------------------------------------------|
G------------------------------------------------------------| X 6 (after 2
D------------------------------------------------------------|  bars of intro)
A------------------------------------------------------------|
E--3333333333333333333333333333333333333333333---------------|

Verse 1:
e-----3-------3333333333333333333333333----------------------|
B-3-----3--3-------------------------------------------------|
G-0--------0-------------------------------------------------|
D------------------------------------------------------------| X 2
A------------------------------------------------------------|
E------------------------------------------------------------|
Chorus:

e--------------------3-3-3-3-3-3-3-3--------------------------|
B--------------------4-4-4-4-4-4-4-4--------------------------|
G--12--13--14--15----5-5-5-5-5-5-5-5--------------------------|
D--------------------5-5-5-5-5-5-5-5--------------------------|
A----10--11--12--13--3-3-3-3-3-3-3-3--------------------------|
E-------------------------------------------------------------|


e--------------------3-3-3-3-3-3-3-3--------------------------|
B--------------------4-4-4-4-4-4-4-4--------------------------|
G--12--13--14--15----5-5-5-5-5-5-5-5--------------------------|
D--------------------5-5-5-5-5-5-5-5--------------------------|
A----10--11--12--13--3-3-3-3-3-3-3-3--------------------------|
E-------------------------------------------------------------|

e--------------------3-3-3-3-3-3------------------------------|
B--------------------4-4-4-4-4-4------------------------------|
G--12--13--14--15----5-5-5-5-5-5------------------------------|
D--------------------5-5-5-5-5-5------------------------------|
A----10--11--12--13--3-3-3-3-3-3------------------------------|
E-------------------------------------------------------------|

Verse 2:
e------------------------------------------------------------|
B--11--11--X-X-----------------------------------------------|
G--10--10--X-X--12--12/0-------------------------------------| X 3
D--9---9---X-X--X---X--X---0h8p0-0---------------------------|
A--10--10--X-X--10--10/0-------------------------------------|
E------------------------------------------------------------|

e------------------------------------------------------------|
B--11--11--X-X-----------------------------------------------|
G--10--10--X-X--12--12/0-----0-----0-------------------------| X 1
D--9---9---X-X--X---X--X---8---0-8---------------------------|
A--10--10--X-X--10--10/0-------------------------------------|
E------------------------------------------------------------|

(Slow tempo):
e------------------------3-------------------3-----------------|
B-3----------3----------------5-4--------1--------5-4-------1--|
G-0----0---0---0---0-------0-------0--3--------0-------0--3----| X2
D--------0-------0---------------------------------------------|
A--------------------------------------------------------------|
E--------------------------------------------------------------|

Chorus:
e--------------------3-3-3-3-3-3-3-3--------------------------|
B--------------------4-4-4-4-4-4-4-4--------------------------|
G--12--13--14--15----5-5-5-5-5-5-5-5--------------------------|
D--------------------5-5-5-5-5-5-5-5--------------------------|
A----10--11--12--13--3-3-3-3-3-3-3-3--------------------------|
E-------------------------------------------------------------|


e--------------------3-3-3-3-3-3-3-3--------------------------|
B--------------------4-4-4-4-4-4-4-4--------------------------|
G--12--13--14--15----5-5-5-5-5-5-5-5--------------------------|
D--------------------5-5-5-5-5-5-5-5--------------------------|
A----10--11--12--13--3-3-3-3-3-3-3-3--------------------------|
E-------------------------------------------------------------|

e--------------------3-3-3-3-3-3------------------------------|
B--------------------4-4-4-4-4-4------------------------------|
G--12--13--14--15----5-5-5-5-5-5------------------------------|
D--------------------5-5-5-5-5-5------------------------------|
A----10--11--12--13--3-3-3-3-3-3------------------------------|
E-------------------------------------------------------------|


Bridge:

e--------------------           ---XXXXXXXX-------------------|
B--------------------           ---XXXXXXXX-------------------|
G-------9-8---3-5-7-- X 4, Then:---XXXXXXXX-------------------|
D-5-5---9-8---3-5-7--      strum---XXXXXXXX-------------------|
A-5-5---7-6---1-3-5--           ---XXXXXXXX-------------------|
E-3-3----------------           ---XXXXXXXX-------------------|

e-------------------------------------------------------------|
B-------------------------------------------------------------|
G-------9-8---3-5-7-------------------------------------------| X 4
D-5-5---9-8---3-5-7-------------------------------------------|
A-5-5---7-6---1-3-5-------------------------------------------|
E-3-3---------------------------------------------------------|

e-6----6-------------------6-----6----------------------------|
B---8-----8-------------------8-----7-------------------------|
G---------------9-8---3-5-------------9-8--3-5-7--------------|  X 2
D---------------9-8---3-5-------------9-8--3-5-7--------------|
A---------------7-6---1-3-------------7-6--1-3-5--------------|
E-------------------------------------------------------------|

Chorus:
e--------------------3-3-3-3-3-3-3-3--------------------------|
B--------------------4-4-4-4-4-4-4-4--------------------------|
G--12--13--14--15----5-5-5-5-5-5-5-5--------------------------|
D--------------------5-5-5-5-5-5-5-5--------------------------|
A----10--11--12--13--3-3-3-3-3-3-3-3--------------------------|
E-------------------------------------------------------------|

e--------------------3-3-3-3-3-3-3-3--------------------------|
B--------------------4-4-4-4-4-4-4-4--------------------------|
G--12--13--14--15----5-5-5-5-5-5-5-5--------------------------|
D--------------------5-5-5-5-5-5-5-5--------------------------|
A----10--11--12--13--3-3-3-3-3-3-3-3--------------------------|
E-------------------------------------------------------------|

Falsetto used in part underneath: (so you know where you are)
e--------------------3-3-3-3-3-3-3-3--------------------------|
B--------------------4-4-4-4-4-4-4-4--------------------------|
G--12--13--14--15----5-5-5-5-5-5-5-5--------------------------|
D--------------------5-5-5-5-5-5-5-5--------------------------|
A----10--11--12--13--3-3-3-3-3-3-3-3--------------------------|
E-------------------------------------------------------------|

e--------------------3-3-3-3-------------------------2--------|
B--------------------4-4-4-4-------------------------4--------|
G--12--13--14--15----5-5-5-5-/-7-8-10-12-14-15-17----4--------|
D--------------------5-5-5-5---x-x-x--x--x--x--x-----x--------|
A----10--11--12--13--3-3-3-3-/-5-6-8--10-12-13-15----2--------|
E-------------------------------------------------------------|
            
Submit corrections

comments powered by Disqus
↑ Back to top | Muse Tabs for Balloonatic. Lyrics for acoustic guitar and electric guitar. Tablatures and chords are parodies/interpretations of the original songs. You may use it for private study, scholarship, research or language learning purposes only