» » »

Assassin Tabs (ver.2)

Artists:  A B C D E F G H I J K L M N O P Q R S T U V W X Y Z # 

Assassin Tabs (ver.2)

Muse
Rating:
5/5 (17 votes)

Hard to play? Try these video lessons and learn fast.
                -------------------------------------------------------------------------------
                             ASSASSIN - MUSE
-------------------------------------------------------------------------------

Tuning: DROP D

Intro – Part 1 x1

e|---------------------------------------------------------------------------|
B|-3-2-2-2-2-2-3-2-2-2-2-2-3-2-2-3-2-2-2-2-2-3-2-2-2-2-2-3-2-2-2-------------|
G|-3-2-2-2-2-2-3-2-2-2-2-2-3-2-2-3-2-2-2-2-2-3-2-2-2-2-2-3-2-2-2-------------|
D|---------------------------------------------------------------------------|
A|---------------------------------------------------------------------------|
D|---------------------------------------------------------------------------|

e|---------------------------------------------------------------------------|
B|-4-3-3-3-3-3-4-3-3-3-3-3-4-3-3-3-4-3-3-3-3-3-4-3-3-3-3-3-4-3-3-3-----------|
G|-3-0-0-0-0-0-3-0-0-0-0-0-3-0-0-0-3-0-0-0-0-0-3-0-0-0-0-0-3-0-0-0-----------|
D|---------------------------------------------------------------------------|
A|---------------------------------------------------------------------------|
D|---------------------------------------------------------------------------|

e|---------------------------------------------------------------------------|
B|-3-2-2-2-2-2-3-2-2-2-2-2-3-2-2-3-2-2-2-2-2-3-2-2-2-2-2-3-2-2-2-------------|
G|-3-2-2-2-2-2-3-2-2-2-2-2-3-2-2-3-2-2-2-2-2-3-2-2-2-2-2-3-2-2-2-------------|
D|---------------------------------------------------------------------------|
A|---------------------------------------------------------------------------|
D|---------------------------------------------------------------------------|

e|---------------------------------------------------------------------------|
B|-4-3-3-3-3-3-4-3-3-3-3-3-4-3-3-3-4-3-3-3-3-3-4-3-3-3-3-3-4-----------------|
G|-3-0-0-0-0-0-3-0-0-0-0-0-3-0-0-0-3-0-0-0-0-0-3-0-0-0-0-0-3-----------------|
D|---------------------------------------------------------------------------|
A|---------------------------------------------------------------------------|
D|---------------------------------------------------------------------------|


Intro – Part 2 x2

e|---------------------------------------------------------------------------|
B|---------------------------------------------------------------------------|
G|---------------------------------------------------------------------------|
D|---------------------------------------------------------------------------|
A|---------------------------------------------------------------------------|
D|-8-7-7-7-7-7-8-7-7-7-7-7-8-7-8-7-7-7-7-7-8-7-7-7-7-7-8-7-------------------|

e|---------------------------------------------------------------------------|
B|---------------------------------------------------------------------------|
G|---------------------------------------------------------------------------|
D|---------------------------------------------------------------------------|
A|---------------------------------------------------------------------------|
D|-8-5-5-5-5-5-8-5-5-5-5-5-8-5-8-5-5-5-5-5-8-5-5-5-5-5-8-5-------------------|

x2

e|---------|-----------------------------------------------------------------|
B|---------|-----------------------------------------------------------------|
G|--drum---|-----------------------------------------------------------------|
D|--fill---|-----------------------------------------------------------------|
A|---------|-----------------------------------------------------------------|
D|---------|-8-0-0-0-0-0-8-0-0-0-0-0-8-0-0-0-8-0-0-0-0-0-8-0-0-0-0-0-8-0-0-0-|

e|---------------------------------------------------------------------------|
B|---------------------------------------------------------------------------|
G|---------------------------------------------------------------------------|
D|---------------------------------------------------------------------------|
A|---------------------------------------------------------888888------------|
D|-8-0-0-0-0-0-8-0-0-0-0-0-8-0-0-0-8-0-0-0-0-0-8-0-0-0-0-0-888888------------|

The next riff has two variations, you can choose which one you want to use.

Verse 1 x2
Var.1


e|---------------------------------------------------------------------------|
B|---------------------------------------------------------------------------|
G|---------------------------------------------------------------------------|
D|-3-0-0-0-X-X-3-0-0-0-X-X-3-0-0-0-3-0-0-0-0-0-3-0-0-0-0-0-3-0-0-0--3-0-0-0-0|
A|---------------------------------------------------------------------------|
D|---------------------------------------------------------------------------|

e|---------------------------------------------------------------------------|
B|---------------------------------------------------------------------------|
G|---------------------------------------------------------------------------|
D|-3-2-2-2-X-X-3-2-2-2-X-X-3-2-2-X-3-2-2-2-X-X-3-2-2-2-X-X-3-2-X-X-----------|
A|---------------------------------------------------------------------------|
D|---------------------------------------------------------------------------|

e|---------------------------------------------------------------------------|
B|---------------------------------------------------------------------------|
G|---------------------------------------------------------------------------|
D|-3-5-5-5-X-X-3-5-5-5-X-X-3-5-5-X-3-5-5-5-X-X-3-5-5-5-X-X-3-5-X-X-----------|
A|---------------------------------------------------------------------------|
D|---------------------------------------------------------------------------|

e|---------------------------------------------------------------------------|
B|---------------------------------------------------------------------------|
G|---------------------------------------------------------------------------|
D|-3-5-5-5-5-5-X--5-7-7-7-X-X-5-7-7-7-X-X-5-7-7-X-5-7-7-7-X-X-5-7-7-7-7-7-7-7|
A|---------------------------------------------------------------------------|
D|---------------------------------------------------------------------------|

Var.2

e|---------------------------------------------------------------------------|
B|---------------------------------------------------------------------------|
G|---------------------------------------------------------------------------|
D|---------------------------------------------------------------------------|
A|-8-5-5-5-X-X-8-5-5-5-X-X-8-5-5-5-8-5-5-5-5-5-8-5-5-5-5-5-8-5-5-5--8-5-5-5-5|
D|---------------------------------------------------------------------------|

e|---------------------------------------------------------------------------|
B|---------------------------------------------------------------------------|
G|---------------------------------------------------------------------------|
D|---------------------------------------------------------------------------|
A|-8-7-7-7-X-X-8-7-7-7-X-X-8-7-7-X-8-7-7-7-X-X-8-7-7-7-X-X-8-7-X-X-----------|
D|---------------------------------------------------------------------------|

e|---------------------------------------------------------------------------|
B|---------------------------------------------------------------------------|
G|---------------------------------------------------------------------------|
D|---------------------------------------------------------------------------|
A|-8-10-10-10-X-X-8-10-10-10-X-X-8-10-10-X-8-10-10-10-X-X-8-10-10-10-X-X-----|
D|---------------------------------------------------------------------------|

e|---------------------------------------------------------------------------|
B|---------------------------------------------------------------------------|
G|---------------------------------------------------------------------------|
D|---------------------------------------------------------------------------|
A|-8-10-X-X-8-10-10-10-10-10-X--10-12-12-12-X-X-10-12-12-12-X-X-10-12-12-X---|
D|---------------------------------------------------------------------------|

e|---------------------------------------------------------------------------|
B|---------------------------------------------------------------------------|
G|---------------------------------------------------------------------------|
D|---------------------------------------------------------------------------|
A|-10-12-12-12-X-X-10-12-12-12-12-12-12-12-----------------------------------|
D|---------------------------------------------------------------------------|

Chorus x2

e|---------------------------------------------------------------------------|
B|---------------------------------------------------------------------------|
G|---------------------------------------------------------------------------|
D|---------------------------------------------------------------------------|
A|---------------------------------------------------------------------------|
D|-7-3-3-3-3-3-7-3-3-3-3-3-7-3-3-3-(x3)--9-10-10-10-10-(x3)------------------|

e|---------------------------------------------------------------------------|
B|---------------------------------------------------------------------------|
G|---------------------------------------------------------------------------|
D|---------------------------------------------------------------------------|
A|---------------------------------------------------------------------------|
D|-8-5-5-5-5-5-8-5-5-5-5-5-8-5-5-5-(x3)--8-0-0-0-0-0-8-0-0-0-0-0-8-0-0-0-(x1)|

Link x1

e|---------------------------------------------------------------------------|
B|---------------------------------------------------------------------------|
G|---------------------------------------------------------------------------|
D|---------------------------------------------------------------------------|
A|---------------------------------------------------------------------------|
D|-8-7-7-7-7-7-8-7-7-7-7-7-8-7-8-7-7-7-7-7-8-7-7-7-7-7-8-7-------------------|

e|---------------------------------------------------------------------------|
B|---------------------------------------------------------------------------|
G|---------------------------------------------------------------------------|
D|---------------------------------------------------------------------------|
A|---------------------------------------------------------------------------|
D|-8-5-5-5-5-5-8-5-5-5-5-5-8-5-8-5-5-5-5-5-8-5-5-5-5-5-8-5-------------------|

e|---------------------------------------------------------------------------|
B|---------------------------------------------------------------------------|
G|---------------------------------------------------------------------------|
D|---------------------------------------------------------------------------|
A|---------------------------------------------------------------------------|
D|-8-7-7-7-7-7-8-7-7-7-7-7-8-7-8-7-7-7-7-7-8-7-7-7-7-7-8-7-------------------|

e|---------------------------------------------------------------------------|
B|---------------------------------------------------------------------------|
G|---------------------------------------------------------------------------|
D|---------------------------------------------------------------------------|
A|---------------------------------------------------------------------------|
D|-8-5-5-5-5-5-8-5-5-5-5-5-8-5-----------------------------------------------|

x2

e|---------|-----------------------------------------------------------------|
B|---------|-----------------------------------------------------------------|
G|--drum---|-----------------------------------------------------------------|
D|--fill---|-----------------------------------------------------------------|
A|---------|-----------------------------------------------------------------|
D|---------|-8-0-0-0-0-0-8-0-0-0-0-0-8-0-0-0-8-0-0-0-0-0-8-0-0-0-0-0--8-0-0-0|

e|---------------------------------------------------------------------------|
B|---------------------------------------------------------------------------|
G|---------------------------------------------------------------------------|
D|---------------------------------------------------------------------------|
A|---------------------------------------------------------888888------------|
D|-8-0-0-0-0-0-8-0-0-0-0-0-8-0-0-0-8-0-0-0-0-0-8-0-0-0-0-0-888888------------|

Verse 2 x1
Var.1

e|---------------------------------------------------------------------------|
B|---------------------------------------------------------------------------|
G|---------------------------------------------------------------------------|
D|-3-0-0-0-X-X-3-0-0-0-X-X-3-0-0-0-3-0-0-0-0-0-3-0-0-0-0-0-3-0-0-0--3-0-0-0-0|
A|---------------------------------------------------------------------------|
D|---------------------------------------------------------------------------|

e|---------------------------------------------------------------------------|
B|---------------------------------------------------------------------------|
G|---------------------------------------------------------------------------|
D|-3-2-2-2-X-X-3-2-2-2-X-X-3-2-2-X-3-2-2-2-X-X-3-2-2-2-X-X-3-2-X-X-----------|
A|---------------------------------------------------------------------------|
D|---------------------------------------------------------------------------|

e|---------------------------------------------------------------------------|
B|---------------------------------------------------------------------------|
G|---------------------------------------------------------------------------|
D|-3-5-5-5-X-X-3-5-5-5-X-X-3-5-5-X-3-5-5-5-X-X-3-5-5-5-X-X-3-5-X-X-----------|
A|---------------------------------------------------------------------------|
D|---------------------------------------------------------------------------|

e|---------------------------------------------------------------------------|
B|---------------------------------------------------------------------------|
G|---------------------------------------------------------------------------|
D|-3-5-5-5-5-5-X--5-7-7-7-X-X-5-7-7-7-X-X-5-7-7-X-5-7-7-7-X-X-5-7-7-7-7-7-7-7|
A|---------------------------------------------------------------------------|
D|---------------------------------------------------------------------------|

Var.2

e|---------------------------------------------------------------------------|
B|---------------------------------------------------------------------------|
G|---------------------------------------------------------------------------|
D|---------------------------------------------------------------------------|
A|-8-5-5-5-X-X-8-5-5-5-X-X-8-5-5-5-8-5-5-5-5-5-8-5-5-5-5-5-8-5-5-5--8-5-5-5-5|
D|---------------------------------------------------------------------------|

e|---------------------------------------------------------------------------|
B|---------------------------------------------------------------------------|
G|---------------------------------------------------------------------------|
D|---------------------------------------------------------------------------|
A|-8-7-7-7-X-X-8-7-7-7-X-X-8-7-7-X-8-7-7-7-X-X-8-7-7-7-X-X-8-7-X-X ----------|
D|---------------------------------------------------------------------------|

e|---------------------------------------------------------------------------|
B|---------------------------------------------------------------------------|
G|---------------------------------------------------------------------------|
D|---------------------------------------------------------------------------|
A|-8-10-10-10-X-X-8-10-10-10-X-X-8-10-10-X-8-10-10-10-X-X-8-10-10-10-X-X-----|
D|---------------------------------------------------------------------------|

e|---------------------------------------------------------------------------|
B|---------------------------------------------------------------------------|
G|---------------------------------------------------------------------------|
D|---------------------------------------------------------------------------|
A|-8-10-X-X-8-10-10-10-10-10-X--10-12-12-12-X-X-10-12-12-12-X-X-10-12-12-X---|
D|---------------------------------------------------------------------------|

e|---------------------------------------------------------------------------|
B|---------------------------------------------------------------------------|
G|---------------------------------------------------------------------------|
D|---------------------------------------------------------------------------|
A|-10-12-12-12-X-X-10-12-12-12-12-12-12-12-----------------------------------|
D|---------------------------------------------------------------------------|

Chorus x2

e|---------------------------------------------------------------------------|
B|---------------------------------------------------------------------------|
G|---------------------------------------------------------------------------|
D|---------------------------------------------------------------------------|
A|---------------------------------------------------------------------------|
D|-7-3-3-3-3-3-7-3-3-3-3-3-7-3-3-3-(x3)--9-10-10-10-10-(x3)------------------|

e|---------------------------------------------------------------------------|
B|---------------------------------------------------------------------------|
G|---------------------------------------------------------------------------|
D|---------------------------------------------------------------------------|
A|---------------------------------------------------------------------------|
D|-8-5-5-5-5-5-8-5-5-5-5-5-8-5-5-5-(x3)--8-0-0-0-0-0-8-0-0-0-0-0-8-0-0-0-(x1)|

Outro x2

e|---------|-----------------------------------------------------------------|
B|---------|-----------------------------------------------------------------|
G|--Pause--|-----------------------------------------------------------------|
D|---------|-----------------------------------------------------------------|
A|---------|-----------------------------------------------------------------|
D|---------|-8-7-7-7-7-7-8-7-7-7-7-7-8-7-8-7-7-7-7-7-8-7-7-7-7-7-8-7---------|

e|---------------------------------------------------------------------------|
B|---------------------------------------------------------------------------|
G|---------------------------------------------------------------------------|
D|---------------------------------------------------------------------------|
A|---------------------------------------------------------------------------|
D|-8-5-5-5-5-5-8-5-5-5-5-5-8-5-8-5-5-5-5-5-8-5-5-5-5-5-8-5-------------------|

End

e|-------------------|
B|-------------------|
G|-------------------|
D|--------------0----|
A|--------------0----|
D|-X------------0----|


| /  slide up
| \  slide down
| h  hammer-on
| p  pull-off
| ~  vibrato
| +  harmonic
| x  Mute note
===============================================================================
            
Hard to play? Try these video lessons and learn fast. | Correct




comments powered by Disqus
↑ Back to top | Tablatures and chords are parodies/interpretations of the original songs. You may use it for private study, scholarship, research or language learning purposes only