» » »

Muse, Assassin Tabs (ver.1)

Artists:  A B C D E F G H I J K L M N O P Q R S T U V W X Y Z # 

Assassin Tabs (ver.1)

Muse Tabs
 Rating:
4/5 (36 votes)
Assassin lessons Tabs too difficult? Try these video lessons and learn fast
                ----------------------------------------------------------------------------
         Assassin (Grand Omega Bosses Remix) - MUSE
----------------------------------------------------------------------------


Key D minor /F major

BPM = 125

This is the version with the bridge type bit in the middle
and they do this in or around the end of their live versions, check the join the resistance videos

For order see bottom

Tuning: DADGBe (Drop D)

Have fun,  rate it, have a nice day! 

Intro
0:00-0:15

e|------------------------------------|-----------------------------------|
B|-3-2-2-2-2-2--3-2-2-2-2-2--3-2-2-2--|-3-2-2-2-2-2--3-2-2-2-2-2--3-2-2-2-|
G|-3-2-2-2-2-2--3-2-2-2-2-2--3-2-2-2--|-3-2-2-2-2-2--3-2-2-2-2-2--3-2-2-2-|
D|------------------------------------|-----------------------------------|
A|------------------------------------|-----------------------------------|
D|------------------------------------|-----------------------------------|

e|------------------------------------|-----------------------------------|
B|-4-3-3-3-3-3--4-3-3-3-3-3--4-3-3-3--|-4-3-3-3-3-3--4-3-3-3-3-3--4-3-3-3-|
G|-3-0-0-0-0-0--3-0-0-0-0-0--3-0-0-0--|-3-0-0-0-0-0--3-0-0-0-0-0--3-0-0-0-|
D|------------------------------------|-----------------------------------|
A|------------------------------------|-----------------------------------|
D|------------------------------------|-----------------------------------|

Repeat all 4 bars

Pre Verse
0:15-0:29

Overdrive And Palm Muted

e|--------------------------------|--------------------------------|
B|--------------------------------|--------------------------------|
G|--------------------------------|--------------------------------|
D|--------------------------------|--------------------------------|
A|--------------------------------|--------------------------------|
D|--8-7-7-7-7-7--8-7-7-7-7-7--8-7-|--8-7-7-7-7-7--8-7-7-7-7-7--8-7-|
PM ==============================  PM==============================


e|--------------------------------|--------------------------------|
B|--------------------------------|--------------------------------|
G|--------------------------------|--------------------------------|
D|--------------------------------|--------------------------------|
A|--------------------------------|--------------------------------|
D|--8-5-5-5-5-5--8-5-5-5-5-5--8-5-|--8-5-5-5-5-5--8-5-5-5-5-5--8-5-|
PM =============================== PM==============================

Repeat all 4 bars x2


Drum Fill ( whoop whoop ) :)


Pre Verse Thing 2 (Main Riff)
0:32-0:47

Overdrive

e|------------------------------------|------------------------------------|
B|------------------------------------|------------------------------------|
G|------------------------------------|------------------------------------|
D|------------------------------------|------------------------------------|
A|------------------------------------|------------------------------------|
D|--8-0-0-0-0-0--8-0-0-0-0-0--8-0-0-0-|--8-0-0-0-0-0--8-0-0-0-0-0--8-0-0-0-|

e|------------------------------------|------------------------------------|
B|------------------------------------|------------------------------------|
G|------------------------------------|------------------------------------|
D|------------------------------------|------------------------------------|
A|------------------------------------|------------------------------------|
D|--8-0-0-0-0-0--8-0-0-0-0-0--8-0-0-0-|--8-0-0-0-0-0--8-0-0-0-8-8--8-8-8-8-|

Reapeat X2

Verse
0:47-1:22

Overdrive

e|------------------------------------|------------------------------------|
B|------------------------------------|------------------------------------|
G|------------------------------------|------------------------------------|
D|--3-0-0-0-0-0--3-0-0-0-0-0--3-0-0-0-|--3-0-0-0-0-0--3-0-0-0-0-0--3-0-0-0-|
A|------------------------------------|------------------------------------|
D|------------------------------------|------------------------------------|

It the Changes to 2/4 time here for 1 bar

e|------------------|
B|------------------|
G|------------------|
D|--3-0-0-0-0-0-0-0-|
A|------------------|
D|------------------|

e|------------------------------------|------------------------------------|
B|------------------------------------|------------------------------------|
G|------------------------------------|------------------------------------|
D|--3-2-2-2-2-2--3-2-2-2-2-2--3-2-2-2-|--3-2-2-2-2-2--3-2-2-2-2-2--3-2-2-2-|
A|------------------------------------|------------------------------------|
D|------------------------------------|------------------------------------|

It the Changes to 2/4 time here for 1 bar

e|------------------|
B|------------------|
G|------------------|
D|--3-2-2-2-2-2-2-2-|
A|------------------|
D|------------------|

e|------------------------------------|------------------------------------|
B|------------------------------------|------------------------------------|
G|------------------------------------|------------------------------------|
D|--3-5-5-5-5-5--3-5-5-5-5-5--3-5-5-5-|--3-5-5-5-5-5--3-5-5-5-5-5--3-5-5-5-|
A|------------------------------------|------------------------------------|
D|------------------------------------|------------------------------------|

It the Changes to 2/4 time here for 1 bar

e|------------------|
B|------------------|
G|------------------|
D|--3-5-5-5-5-5-5-5-|
A|------------------|
D|------------------|

e|------------------------------------|------------------------------------|
B|------------------------------------|------------------------------------|
G|------------------------------------|------------------------------------|
D|--5-7-7-7-7-7--5-7-7-7-7-7--5-7-7-7-|--5-7-7-7-7-7--5-7-7-7-7-7--5-7-7-7-|
A|------------------------------------|------------------------------------|
D|------------------------------------|------------------------------------|

It the Changes to 2/4 time here for 1 bar

e|------------------|
B|------------------|
G|------------------|
D|--5-7-7-7-7-7-7-7-|                  REPEAT X2
A|------------------|
D|------------------|

Chorus
1:22-1:52

Overdrive

e|------------------------------------|------------------------------------|
B|------------------------------------|------------------------------------|
G|------------------------------------|------------------------------------|
D|------------------------------------|------------------------------------|
A|------------------------------------|------------------------------------|
D|--7-3-3-3-3-3--7-3-3-3-3-3--7-3-3-3-|--7-3-3-3-3-3--7-3-3-3-3-3--7-3-3-3-|

e|------------------------------------|
B|------------------------------------|
G|------------------------------------|
D|------------------------------------|
A|------------------------------------|
D|--7-3-3-3-3-3--7-3-3-3-3-3--7-3-3-3-|

e|--------------------------------------------------|
B|--------------------------------------------------|
G|--------------------------------------------------|
D|--------------------------------------------------|
A|--------------------------------------------------|
D|--10-10-10-10-10-10-10-10-10-10-10-10-10-10-10-10-|


e|------------------------------------|------------------------------------|
B|------------------------------------|------------------------------------|
G|------------------------------------|------------------------------------|
D|------------------------------------|------------------------------------|
A|------------------------------------|------------------------------------|
D|--8-5-5-5-5-5--8-5-5-5-5-5--8-5-5-5-|--8-5-5-5-5-5--8-5-5-5-5-5--8-5-5-5-|

e|------------------------------------|
B|------------------------------------|
G|------------------------------------|
D|------------------------------------|
A|------------------------------------|
D|--8-5-5-5-5-5--8-5-5-5-5-5--8-5-5-5-|

e|------------------------------------|
B|------------------------------------|
G|------------------------------------|
D|------------------------------------|   Repeat All X2
A|------------------------------------|
D|--8-0-0-0-0-0--8-0-0-0-0-0--8-0-0-0-|


Bridge Thing
2:22-

Overdrive

e|--13p12p10--Repeat 15 times then---22bu-|    edit... It's actually easier to tap it ;) + a wee 
B|----------------------------------------|.                       Bit more interesting
G|----------------------------------------|
D|----------------------------------------|
A|----------------------------------------|
D|----------------------------------------|

e|-------------------|
B|-------------------|
G|-------------------|
D|-------------------|
A|-------------------|
D|--0--0-0-0--3--8-7-|  Repeat X4


e|--------------------------|
B|--------------------------|
G|--------------------------|
D|--------------------------|
A|--------------------------|
D|--7--7-7-7--10--15-14-15b-|    X1

e|-------------------------------------------------------------------------|
B|-------------------------------------------------------------------------|
G|-------------------------------------------------------------------------|
D|-------------------------------------------------------------------------|
A|-------------------------------------------------------------------------|
D|--14h15p14h15--Twice-then 10-15-14-15b-Three times-----------------------|


e|--------------------------------------|
B|--------------------------------------|
G|--------------------------------------|
D|--------------------------------------|
A|--------------------------------------|
D|--0--0-0-0--3--8-7---0--0-0-0--3--9-8-|


e|-----------------------------------------|
B|-----------------------------------------|
G|-----------------------------------------|
D|-----------------------------------------|
A|-----------------------------------------|
D|--0--0-0-0--3--10-9---0--0-0-0--3--12-13-|

e|--------------------------|
B|--------------------------|
G|--------------------------|
D|--------------------------|
A|--------------------------|
D|--7--7-7-7--10--15-14-15b-|    X1

e|-------------------------------------------------------------------------|
B|-------------------------------------------------------------------------|
G|-------------------------------------------------------------------------|
D|-------------------------------------------------------------------------|
A|-------------------------------------------------------------------------|
D|--14h15p14h15--Twice-then 10-15-14-15b-Three times-----------------------|

e|----------------------|
B|----------------------|
G|----------------------|
D|--7-x-x-7-x-x-7-x-x-7-|
A|--7-x-x-7-x-x-7-x-x-7-|   X2
D|--7-x-x-7-x-x-7-x-x-7-|

e|----------------------|
B|----------------------|
G|----------------------|
D|--8-x-x-8-x-x-8-x-x-8-|
A|--8-x-x-8-x-x-8-x-x-8-|   X2
D|--8-x-x-8-x-x-8-x-x-8-|

e|----------------------|
B|----------------------|
G|----------------------|
D|--7-x-x-7-x-x-7-x-x-7-|
A|--7-x-x-7-x-x-7-x-x-7-|   X2
D|--7-x-x-7-x-x-7-x-x-7-|

e|----------------------|
B|----------------------|
G|----------------------|
D|--8-x-x-8-x-x-8-x-x-8-|
A|--8-x-x-8-x-x-8-x-x-8-|   X2
D|--8-x-x-8-x-x-8-x-x-8-|

e|----------------------|
B|----------------------|
G|----------------------|
D|--5-x-x-5-x-x-5-x-x-5-|
A|--5-x-x-5-x-x-5-x-x-5-|   X2
D|--5-x-x-5-x-x-5-x-x-5-|

e|----------------------|
B|----------------------|
G|----------------------|
D|--7-x-x-7-x-x-7-x-x-7-|
A|--7-x-x-7-x-x-7-x-x-7-|   X2
D|--7-x-x-7-x-x-7-x-x-7-|


e|-----------------------|
B|-----------------------|
G|-----------------------|
D|--7-----7-----7-----7--|
A|--7-----7-----7-----7--|
D|--7-----7-----7-----7--|

The back into main riff (Drums are different but guitar isn't)

Outro

e|-----|
B|-----|
G|-----|
D|--0--|
A|--0--|
E|--0--|

Order

Intro                           (0:00-0:15)
Pre Verse                       (0:15-0:29)
Pre Verse Thing 2 (Main Riff)   (0:32-0:47)
Verse                           (0:47-1:22)
Chorus                          (1:22-1:52)
Pre Verse                       (1:52-2:04)
Pre Verse Thing 2 (Main Riff)   (2:07-2:21)
Bridge Thing                    (2:21-3:55)
Pre Verse Thing 2               (3:55-4:11)
Verse                           (4:11-4:28)
Chorus                          (4:28-4:58)
Pre Verse                       (4:58-5:14)
Outro                           (5:16)


| /  slide up
| \  slide down
| h  hammer-on
| p  pull-off
| ~  vibrato
| +  harmonic
| x  Mute note
===============================================================================
            
Submit corrections

comments powered by Disqus
↑ Back to top | Muse Tabs for Assassin. Lyrics for acoustic guitar and electric guitar. Tablatures and chords are parodies/interpretations of the original songs. You may use it for private study, scholarship, research or language learning purposes only