» » »

Action Faust Tabs (ver.2)

Artists:  A B C D E F G H I J K L M N O P Q R S T U V W X Y Z # 

Action Faust Tabs (ver.2)

Muse
Rating:
0/5 (0 votes)

Tabs too difficult? Try these video lessons and learn fast.
                Action Faust
This song is on Muse’s new album.
e |----------------------------------------------------------------|
B|-----------------------------------------------------------------|
G|---------------7-----------------7-------------------------------|
D|-----------------------------------------------------------------|           X4
A|-8-9-8-9-8-9--9-8-9-8-9-8-9-9------------------------------------|
E|-----------------------------------------------------------------|

e|-----------------------------------------------------------------|
B|-----------------------------------------------------------------|
G|-----------------------------------------------------------------|
D|-----------------------------------------------------------------|
A|-5-5-5-5-5-5-5-5-5-5-5-5-7-7-7-7-9-9-9-9-9-9-9-9-----------------|
E|-----------------------------------------------------------------|

e|-----------------------------------------------------------------|
B|-----------------------------------------------------------------|
G|-----------------------------------------------------------------|
D|-----------------------------------------------------------------|
A|10-10-10-10-12-12-12-12-14-14-14-14-14-14-14-14------------------|
E|-----------------------------------------------------------------|

e|----------------------------------------------------------------|
B|----------------------------------------------------------------|
G|----------------------------------------------------------------|
D|----------------------------------------------------------------|
A|-16-14-16-14-16-14-16-14-16-16^-^-^-^---------------------------|
E|----------------------------------------------------------------|
            
Tabs too difficult? Try these video lessons and learn fast.


comments powered by Disqus
↑ Back to top | Tablatures and chords are parodies/interpretations of the original songs. You may use it for private study, scholarship, research or language learning purposes only