» » »

There She Is Tabs (ver.1)

Artists:  A B C D E F G H I J K L M N O P Q R S T U V W X Y Z # 

There She Is Tabs (ver.1)

Mumm-ra
Rating:
5/5 (1 vote)

Hard to play? Try these video lessons and learn fast.
                --------------------------------------------------------------------------
THERE SHE IS -- MUMM-RA -- Black Hurts Day & The Night Rolls On EP
--------------------------------------------------------------------------

This is the chorus part, I am yet to work out the rest

CAPO 3rd!!!


----------------------------------------------|
---------3------------------------------------|
-----0-----0---0-----0-------0----------------|
---2---2-----2-----0-------0------------------|
----------------------------------------------|
-0---------------3-----3-2-----2-0------------|  x4

Imagine waking up and there she is, there she is,
She's wrapped up with a smile from a well placed kiss.
Because she loves you and she always did,
Oh, what a dream but that's just all it is.

Enjoy
            
Hard to play? Try these video lessons and learn fast. | Correct




comments powered by Disqus
↑ Back to top | Tablatures and chords are parodies/interpretations of the original songs. You may use it for private study, scholarship, research or language learning purposes only