>
 >
Shes Got You High

Shes Got You High Bass Tabs

Mumm-ra - Shes Got You High chords, tabs, tablatures, lyrics

Guitar lessons | Add/correct | Request | Top 50 tabs Artists:  A B C D E F G H I J K L M N O P Q R S T U V W X Y Z 0-9

Shes Got You High Bass Tabs – Mumm-ra

CD, Sheet music, Poster

Do you like Shes Got You High? Share with your friends now
Bass TabsChordsChords v2Chords v3TabsTabs v2Tabs v3Ukulele
----------------------------------------------------------------------------
			     She's got you high. - Mumm-Ra
----------------------------------------------------------------------------


Tuning: Stnadard (E,A,D,G)

Note that this is my first tab, and that 7x32 means play 7 32 times. And that the --22-- 
section one is 2-2 and not 22.

SECTION 1 (come in at 00:29)

G|-------------------------PAUSE-------------------------------------------|
D|---------4/7x16----------PAUSE---7X16------------------------------------|
A|-7x32------------7x16----PAUSE---------7X16----22--22--22--22--2--7X16---|
E|-------------------------PASUE-------------------------------------------|


SECTION 2 (come in at 1:05, just bass)

G|----------------------------------------------------------------------|
D|----------------------------------------------------------------------|
A|---7-7-7---------7-7-7-7----9-9----7-7-7---------7-7-7-7----9-9-9-----|
E|-7-------7-9-9-7---------79-----7-------7-9-9-7----------79-----------|

G|-------------------------------------------------------------------------|
D|-7-7-7-----------7-7-7-7-------------------------------------------------|
A|-------7-9-9-9-7---------7-9-9-7-7---7-7-7---------7-7-7-7---------------|
E|-------------------------------------------7-9-9-7---------7-9--9-7-7----|

Section 3 (come in at 1:20)

G|-------------------------------------------------------------------------|
D|-------------7x16--------------------------------------------------------|
A|-7x29--9-9-9------7x16--2-2----2-2----2-2----2-2--2---7x16---------------|
E|-------------------------------------------------------------------------|

(vocal solo bit)

SECTION 4 (come in at 2:03)

G|-------------------------------------------------------------------------|
D|------------7x16-----------------------7x16------444---------------------|
A|-7x29--999-------7x13-999----7x29--999------7x13-----7x13-999--2x16/7x16-|
E|-------------------------------------------------------------------------|

SECTION 5 (come in at 2:40)

G|----------------------------------------------------------------|
D|----------------------------------------------------------------|
A|-7-7-7---------7-7-7-7----9-9---7-7-7---------7-7-7-7----9-9-9--|
E|-------7-9-9-7---------79------7-------7-9-9-7--------7-9-------|

G|-------------------------------------------------------------------------|
D|-7-7-7---------7-7-7-7---------------------------------------------------|
A|-------7-9-9-7---------7-9-9-7-7--7-7-7---------7-7-7-7------------------|
E|----------------------------------------7-9-9-7---------7-9-9-7-7--------|

END ON

G|----------|
D|----------|
A|-2x16/7~--|
E|----------|





Comments


Popular Mumm-ra tabs & chords
Shes Got You High 2 Chords
What Would Steve Do Chords
Clocks Tock Louder At The Dead Of Night Intro Tabs
Shes Got You High Tabs
Shes Got You High 1 Tabs
There She Is 1 Tabs
These Things Move In Threes Intro Tabs
What Would Steve Do Tabs
Now Or Never Ukulele
What Would Steve Do Ukulele


Song lyrics



↑ Back to top | Tablatures and chords are parodies/interpretations of the original songs. You may use it for private study, scholarship, research or language learning purposes only
© 2014 AZChords.com Contact us | Privacy policy | DMCA | Add/correct tabs | Request tabs | Top 50 tabs